Guitar Tabs, Chords and Lyrics
Major upgrade!! After one year development the new version of Chordie is now online! Please give feedback.


Blue Clear Sky  George Strait

Intro
Moderately Q=131
[E] [Amaj7/E] [E] 
[4/4] Gtr III
W W W
| | |
[/] [/] [/] 
Gtr I
~~
Q E E E E E E H H Q E E E E E E
 
 |----------------------------|-------------------|-----------------------------|
 |----------------------------|-------------------|-----------------------------|
 |-^1-------------------------|-1-----------------|-^1--------------------------|
 |-^2---2---1----2-----4----2-|-------------------|-^2---2---1----2-----4----2--|
 |-^2-----2-------------------|-------------------|-^2-----2--------------------|
 |----------------------------|-------------------|-----------------------------|

|
| Gtr II
| ~
| Q E E E E E E E H Q E Q E E E E E E
 
 |----------------------------|-------------------|-----------------------------|
 |---------------------7------|-7s9---------------|---------------------7-------|
 |--9---9---8h===9----------9-|-------------------|--9---9---8h===9----------9--|
 |--9-----9-------------------|-------------------|--9-----9--------------------|
 |--7-------------------------|-------------------|--7--------------------------|
 |----------------------------|-------------------|-----------------------------|

|
| Gtr IV
| Q E E S S S +E S E Q E E E E Q Q E E S S S +E S E
 
 |----------------------------|-------------------|-----------------------------|
 |-----12---x---12-(x)-----12-|-----12---10-9-----|-----12---x---12-(x)-----12--|
 |------9---x----9-(x)------9-|------9----9-9-----|------9---x----9-(x)------9--|
 |----------------------------|-------------------|-----------------------------|
 |----------------------------|-------------------|-----------------------------|
 |----------------------------|-------------------|-----------------------------|

[Amaj7/E]W [E] W [Amaj7/E]W
| | |
[/] [/] [/] 
~~ ~~
H H Q E E E E E E H H
 
 |-------------------|----------------------------|-------------------|
 |-------------------|----------------------------|-------------------|
 |-1-----------------|-^1-------------------------|-1-----------------|
 |-------------------|-^2---2---1----2-----4----2-|-------------------|
 |-------------------|-^2-----2-------------------|-------------------|
 |-------------------|----------------------------|-------------------|

|
| ~ ~
| E H Q E Q E E E E E E E H Q E
 
 |-------------------|----------------------------|-------------------|
 |-7s9---------------|---------------------7------|-7s9---------------|
 |-------------------|--9---9---8h===9----------9-|-------------------|
 |-------------------|--9-----9-------------------|-------------------|
 |-------------------|--7-------------------------|-------------------|
 |-------------------|----------------------------|-------------------|

|
| Q E E E E Q Q E E S S S +E S E Q E E E E Q
 
 |-------------------|----------------------------|-------------------|
 |-----12---10-9-----|-----12---x---12-(x)-----12-|-----12---10-9-----|
 |------9----9-9-----|------9---x----9-(x)------9-|------9----9-9-----|
 |-------------------|----------------------------|-------------------|
 |-------------------|----------------------------|-------------------|
 |-------------------|----------------------------|-------------------|

[E] [B] [E] ~
H H H Q E E E E E E E E Q
 
 |-----------------|----------------2s|==4--2------------||
 |-----------------|------------------|-------5----------||
 |-1-------4-------|-1----------------|---------4-2s1----||
 |-2-------4-------|-2----------------|---------------2--||
 |-2-------2-------|-2----------------|------------------||
 |-----------------|------------------|------------------||

|
| ~
| H H H Q E E +E E E E E E Q
 
 |-4---------------|------------------|------------------||
 |-5-------4-------|---------------/9-|-(9)s7------------||
 |-4-------4-------|-1----------------|-------9----------||
 |-6-------4-------|-2----------------|---------9-7s6-9--||
 |---------6-------|-2----------------|------------------||
 |-----------------|------------------|------------------||

|
| E E E E E E E E E E E E E E E E +E E E E E E Q
 
 |-----------------|------------------|------------------||
 |-----------------|-9-------------/9-|-(9)s7-5----------||
 |-----9-------8---|-9---9---9--------|---------4s2-1----||
 |---9---9---9---9-|-9-9---9-----9----|---------------2--||
 |-7-------9-------|-7---------7------|------------------||
 |-----------------|------------------|------------------||

Verse 1
[E]Gtr I[A] [E]
Q E E +E E +E E Q E E +E E +E E Q E E +E E +E E
| | | | | | | | | | | | | | | | | | | | |
[/] [/] [/] [/] [/] [/] [/] [/] [/] [/] [/] [/] [/] [/] [/] [/] [/] [/] [/] [/] [/] 
Gtr IV
 
 PM----------------------------------------------------|

Q Q E Q E E E Q E Q E Q Q E Q E
 
 |------------------|-------------------|------------------|
 |------------------|-------------------|------------------|
 |------------------|-------------------|------------------|
 |----2------2------|-----2------2------|----2------2------|
 |------------------|-0-0------0------0-|------------------|
 |-0-------0------0-|-------------------|-0-------0------0-|

[A]Q E E +E E +E E [E]Q E E +E E +E E [A]Q E E +E E +E E
| | | | | | | | | | | | | | | | | | | | |
[/] [/] [/] [/] [/] [/] [/] [/] [/] [/] [/] [/] [/] [/] [/] [/] [/] [/] [/] [/] [/] 
 
 PM----------------------------------------------------------|

E E Q E Q E Q Q E Q E E E Q E Q E
 
 |------------------------|------------------|-------------------|
 |------------------------|------------------|-------------------|
 |------------------------|------------------|-------------------|
 |-------2--------2-------|----2------2------|-----2------2------|
 |-0-0----------0-------0-|------------------|-0-0------0------0-|
 |------------------------|-0-------0------0-|-------------------|

|
| Gtr III
| ~~~~~~
| Q a E E E E +Q W W
 
 |------------------------|------------------|-------------------|
 |------------------------|------------------|-------------------|
 |------------------------|------------------|-------------------|
 |-----0S2------4-2-(2)---|------------------|-------------------|
 |---------3b4------------|------------------|-------------------|
 |------------------------|------------------|-------------------|

Verse 2
[E]Q E E [B]+E E +E E [E]Q E E +E E +E E [E] Q E E +E E +E E
| | | | | | | | | | | | | | | | | | | | |
[/] [/] [/] [/]  

Important: The song above is NOT stored on the Chordie server. The original song is hosted at www.azchords.com. Chordie works as a search engine and provides on-the-fly formatting. Chordie does not index songs against artists'/composers' will. To remove this song please click here.

Text color:
Chord color:
Chord grids: 
Font size:    
Page size: 

A Amaj7/E B E
Rate #1 of 6 versions

Login - add to songbook

SHARE PAGE  



You need to log in to post comments