Guitar Tabs, Chords and Lyrics
Major upgrade!! After one year development the new version of Chordie is now online! Please give feedback.


Honkytonkville  George Strait

George Strait
"Honkytonkville"
(Capo 2) ** NOTE - All chords are relative to capo **
** NOTE - Some fiddle licks tabbed for guitar **
(Intro) (fill 1) E, Asus2, (fill 2)
(Verse 1)
[Asus2] Thought I'd go crazy [E] when you said goodbye
[Bsus] I didn't [E]have that far to [Asus2]go
But I made a wrong turn [E]somewhere in the night
Bsus E Asus2 (fill 3)
Down a long and lonely road
(Chorus 1)
Dsus2 (fill 4)
To Honkytonkville an ideal home away from home sweet home
Bsus E (fill 5)
Honkytonkville, where I don't feel a thing since you've been gone
Asus2 (fill 6)
Where the future's always bright
Dsus2 (fill 7)
In the glow of neon lights
E (fill 8) Asus2 (fill 9)
Livin' high on Barstool Hill in Honkytonkville
(Repeat Intro)
(Verse 2)
[Asus2] There's friendly faces e[E]verywhere I turn
[Bsus] Droppin' [E]quarters in the [Asus2] slot
Lord knows we've all got [E] memories to burn
Bsus E Asus2 (fill 3)
And that's why that jukebox plays around the clock
(Chorus 2)
Dsus2 (fill 4)
In Honkytonkville an ideal home away from home sweet home
Bsus E (fill 10)
Honkytonkville, where I don't feel a thing since you've been gone
Asus2 (fill 3)
Where the future's always bright
In the [Dsus2]glow of neon lights
E Asus2 (fill 11)
Livin' high on Barstool Hill in Honkytonkville
(Outro)
E Asus2 (fill 1)
Livin' high on Barstool Hill in Honkytonkville
 
 ------------------------------------------------------------------

GUITAR 2
** NOTE - Guitar 2 tabs are relative to "Standard E" (NO CAPO) **
(Fill 1)
 
 E ---------------------------------------------
 B ---------------------------------------------
 G ---------------------------------------------
 D ---6--7--8/4--4--6/2--2--4/1--1--2-1---------
 A -------------------------------------4---2~--
 E ---------------------------------------------

(Fill 2)
 
 E ---------------------------------
 B ---------------------------------
 G ----4--6-6/8--8/9--8--6-4----4~--
 D --4------------------------6-----
 A ---------------------------------
 E ---------------------------------

(Fill 3) (Fill 4) (Fill 5)
 
 E -------------- ----------------- ---------------
 B -------------- ----------------- ---------------
 G -------------- ----------------- ---------------
 D --------1--2~- --1h2--1--0------ ---------------
 A --2--4-------- -------------4~-- --------1--2~--
 E -------------- ----------------- --2-4----------

(Fill 6) (FIll 7)
 
 E ---------------------------- E -----------------------------
 B ---------------------------- B --------12-------------------
 G ---------------------------- G --11^-------X-X-11^--9--11~--
 D -------------4--6h4--------- D -----------------------------
 A --2--2--4/6----------6------ A -----------------------------
 E ------------------------0~-- E -----------------------------

(Fill 8) (Fill 9) (Fill 10)
 
 E -------------- E ------------------- E ------------------
 B -------4------ B --------4---------- B ------------------
 G --6^-----6^v-- G --4-6^----6^v--4~-- G ------------------
 D -------------- D ------------------- D ------------------
 A -------------- A ------------------- A --6---4-6-4^--2~--
 E -------------- E ------------------- E ------------------

(Fill 11)
 
 E ---------------
 B ---------------
 G ---------------
 D ---------------
 A --2--1---------
 E --------4--2~--

(Chords)
[Asus2] [Bsus] [Dsus2] [E]  
 
 E --0-------0------0-------0--
 B --0-------0------3-------0--
 G --2-------4------2-------1--
 D --2-------4------0-------2--
 A --0-------2--------------2--
 E -------------------------0--


Important: The song above is NOT stored on the Chordie server. The original song is hosted at www.azchords.com. Chordie works as a search engine and provides on-the-fly formatting. Chordie does not index songs against artists'/composers' will. To remove this song please click here.

Text color:
Chord color:
Chord grids: 
Font size:    
Page size: 

Asus2 Bsus Dsus2 E
Rate #1 of 4 versions

Jango Player

Login - add to songbook

SHARE PAGE  




You need to log in to post comments