Guitar Tabs, Chords and Lyrics
Major upgrade!! After one year development the new version of Chordie is now online! Please give feedback.


Tell Me Something Bad About Tulsa  George Strait

George Strait
"Tell Me Something Bad About Tulsa"
(Intro) D
(Verse 1)
Love is so [A] beautiful, when [Bm]everything is [A]fine
But when it [G/D]is like hers and [D/F#]mine
Em A7sus D (fill 1 & 2) Asus2
It lives and dies at least ten-thousand times
(Chorus)
Dsus2 Em (Fill 3)
Tell me somethin' bad about Tulsa
G/D D/F# (fill 4) Asus2 Dsus2 (fill 5)
How those old oil wells smell in the wind
Em (fill 6)
Tell me somethin' bad about Tulsa
G/D D/F# (fill 7)
So I won't have to go back
Em A7sus Dsus2 (fill 8)
Believin' I belong there again
(Verse 2)
[Dsus2]Eyes as blue as Tulsa skies
[G/D] I kept gettin' lost in when I [Dsus2] met her
Hair like Oklahoma sand
[G/D] I could run my hands through for[Dsus2]-ever
[F#m] But all good things [Bm]must end
All r[A]ivers have to b[G/D]end[F#m7]
I keep runnin' out[Em]
Asus2, A7sus, A7
But she keeps pullin' me back in
(Chorus)
Dsus2 Em (Fill 9)
Tell me somethin' bad about Tulsa
G/D D/F# Asus2 Dsus2 (fill 10)
How those old oil wells smell in the wind
Em (fill 11)
Tell me somethin' bad about Tulsa
G/D D/F# (fill 12)
So I won't have to go back
Em A7sus Dsus2 (fill 13)
Believin' I belong there again
(Outro)
[Dsus2]Tell me somethin' bad about [Em]Tulsa
So [G/D]I won't have to [D/F#]go back
Em A7sus Dsus2 (fill 14) Em, G/D, A7sus, A7, Dsus2
Believin' I belong there again
 
 --------------------------------------------------------------------

(Intro) (Fill 1)
 
 E -----------0--0h2-- E -----------0--0h2---0-------------------0--
 B --------3---------- B --------3---------3----3-------------3-----
 G -----2------------- G -----2-------------------2--------2--------
 D --0---------------- D --0----------------------------2-----------
 A ------------------- A ----------------------------0--------------
 E ------------------- E -------------------------------------------

(Fill 2) (Fill 3)
 
 E ---------------------- E -------------------------------
 B -----------10/12\10--- B -------------------------------
 G --------11--9/11\9---- G ------7--9^7--9^--7~~~---------
 D ---9/11--------------- D --7/9--------------------------
 B ---------------------- A -------------------------------
 E ---------------------- E -------------------------------

(Fill 4) (Fill 5)
 
 E ----------------- E --------------------------------
 B -------10-------- B --10/12\10---5/7\5--------------
 G --9/11-----9~~~-- G ---9/11\9----4/6\4---7/9-7/9-7--
 D ----------------- D ---------------------7/9-7/9-7--
 A ----------------- A --------------------------------
 E ----------------- E --------------------------------

(Fill 6) (Fill 7)
 
 E ----------------------------------- E -------------------
 B ---------15-15--------------------- B -------------------
 G --14h16---------14--9-9^--7~~~----- G --9/11--9--7--7/9--
 D ----------------------------------- D --9/11--9--7--7/9--
 A ----------------------------------- A -------------------
 E ----------------------------------- E -------------------

(Fill 8)
 
 E -----------------------------------------
 B -----------------------------------------
 G --7h9--11--9~--7-------------------------
 D --7h9--11--9~--7--7h9--9--7--------------
 A ------------------------------7h9--7--5--
 E -----------------------------------------

(Fill 9) (Fill 10)
 
 E --------------------------- E -------------------------------------------
 B --15/17--15---------------- B --10h12-10-------------10------------------
 G --14/16--14---9/11--9--7--- G -----------11-11--9/11----11-11h9--9\7--7--
 D --------------9/11--9--7--- D -----------------------------------9\7--7--
 A --------------------------- A -------------------------------------------
 E --------------------------- E -------------------------------------------

(Fill 11) (Fill 12)
 
 E ---------------------------- E ------------------------
 B -------10------------------- B --7h10-10--10h12--------
 G --9/11-----11h9/7--9/11--7-- G ------------------9~~~--
 D -------------------------7-- D ------------------------
 A ---------------------------- A ------------------------
 E ---------------------------- E ------------------------

(Fill 13)
 
 E -------------------------------------
 B --19/21--19---17/19--17---15/17--15--
 G --19/21--19---16/19--16---14/16--14--
 D -------------------------------------
 A -------------------------------------
 E -------------------------------------

(Fill 14)
 
 E ------------------------------------------------------------------------------
 B ---------17-17-15--15--8/10\8----------------------10----8--7---------9--11~~-
 G --14/16--16-16-14--14--7/ 9\7---9^--7h9h7~~~--9/11----7/9---7------7----------
 D ------------------------------------------------------------7---7-------------
 A ------------------------------------------------------------------------------
 E ------------------------------------------------------------------------------

(Chords)
[A] [A7] [A7sus] [Asus2] [Bm] [D/F#] [Dsus2] [G/D] [Em] [F#m] [F#m7]  
 
 E -------0------0------0----2------0------0-----0----0-----2------2--
 B --2----2------3------0----3------3------3-----3----0-----2------2--
 G --2----0------0------2----4------2------2-----0----0-----2------2--
 D --2----2------2------2----4------0------0-----0----2-----4------2--
 A --0----0------0------0----2------0------------2----2-----4------4--
 E ---------------------------------2------------3----0-----2------2--


Important: The song above is NOT stored on the Chordie server. The original song is hosted at www.azchords.com. Chordie works as a search engine and provides on-the-fly formatting. Chordie does not index songs against artists'/composers' will. To remove this song please click here.

Text color:
Chord color:
Chord grids: 
Font size:    
Page size: 

A A7 A7sus Asus2 Bm D/F# Dsus2 Em F#m F#m7 G/D
Rate #1 of 5 versions

Login - add to songbook

SHARE PAGE  




You need to log in to post comments