Guitar Tabs, Chords and Lyrics
Server problems seems to be fixed. Chordie has been experiencing problems with songs disappearing. These issues now seems to be fixed, but still verifying the fix. If you find anything strange, please email admin@chordie.com.


Absolution   Ghost

 
 e|---------------------------------------------------------------------|
 B|---------------------------------------------------------------------|
 G|--------------------9------------9-----------------------------------|
 D|--2---12--11-10-9---9---9-7------9--12-11-10-9---9-7-----------------|
 A|--2---10---9--8-7---7---7-5-8----7--10--9--8-7---7-5-8---------------|
 E|--0-----------------7-------6-0--0-------------0-----6---------------|
 e|----------------------------|
 B|----------------------------|
 G|----------------------------|
 D|-pm--2^3^2^0--pm------------|
 A|-==---------4-==------------|
 E|-00-----------00-3^4^3--1^0-|
 e|-----------------------------------------------------------------|
 B|-----------------------------------------------------------------|
 G|-----------------------------------------------------------------|
 D|-pm-12--11-10-9-pm--pm------pm---9-7---pm-2^3^2^0--pm------------|
 A|-==-10---9--8-7-===-====-sl-====-7-5-8-==--------4-==------------|
 E|-00-------------000-0000-/--0-00-----6-00----------00-3^4^3-1^0--|
 e|-----------------------------------------------------------------|
 B|-----------------------------------------------------------------|
 G|-----------------------------------------------------------------|
 D|-pm-12--11-10-9-pm--pm------pm---9-7---pm-2^3^2^0--pm------------|
 A|-==-10---9--8-7-===-====-sl-====-7-5-8-==--------4-==------------|
 E|-00-------------000-0000-/--0-00-----6-00----------00-3^4^3-1^0--|

 


 


 [Verse 1] 


 


 'ever since you were born you've been dying?'


 

 
 e|----------------------------------------------------------------------|
 B|----------------------------------------------------------------------|
 G|----------------------------------------------------------------------|
 D|------------------------------------------------------------------6---|
 A|--let-ring-----------------------------------------------------==---8-|
 E|--(0)----------------------------------------------------------00-----|
 e|-----------------------------------------------------------------------|
 B|-----------------------------------------------------------------------|
 G|-----------------------------------------------------------------------|
 D|pm---9-7-------2^3^2^0------------------12-11-10-9-pm--------pm--9-7---|
 A|====-7-5-8--==--------4-==-----------==-10--9--8-7-=======-sl===-7-5-8-|
 E|0-00-----6--00----------00-3^4^3-1^0-00------------0000000-/-000-----6-|
 e|---------------------------------------------------------------------|
 B|---------------------------------------------------------------------|
 G|---------------------------------------------------------------------|
 D|-pm--2^3^2^0--pm----------------------------------------------pm-6---|
 A|-==---------4-==-------------------let-ring-------------------==---8-|
 E|-00-----------00-3^4^3--1^0--------(0)------------------------00-----|
 e|-----------------------------------------------------------------------|
 B|-----------------------------------------------------------------------|
 G|-----------------------------------------------------------------------|
 D|pm---9-7-------2^3^2^0-------------------------------------------------|
 A|====-7-5-8--==--------4-==---------------------------------------------|
 E|0-00-----6--00----------00-3^4^3-1^0-----------------------------------|

 


 


 [Pre-Cborus] 


 


 'all those things that you desire?'


 

 
 e|---------------------------------------------------------------------|
 B|---------------------------------------------------------------------|
 G|---------------------------PM----------------------------------------|
 D|--PM----------------------========--pm-------------------------------|
 A|-========================-11111111--================-====-====-------|
 E|-000000000000000000000000-----------0000000000000000-0000-0000-------|

 


 


 [Cborus] 


 


 

 
 e|----------------------------------------------------------------|
 B|----------------------------------------------------------------|
 G|--------------pm---------2----7-----2---------------------------|
 D|----2^3^2^0---=====------2--5-7-----2-----------------------7---|
 A|--=---------4-0-0-0--12\-0--5-5-12\-0-0-2-3-2-0-7-7-6-5--/5---0-|
 E|--0------------------12\----3---12\-----------------------------|

 


 


 [Cborus] 


 


 

 
 e|--------------------------------------------------------|
 B|--------------------------------------------------------|
 G|----2----7-----2----------------------------------------|
 D|----2--5-7-----2-----------------------7----------------|
 A|12\-0--5-5-12\-0-0-2-3-2-0-7-7-6-5--/5---0-12\----------|
 E|12\----3---12\-----------------------------12\-0000-----|
 e|--------------------------------------------------------------|
 B|--------------------------------------------------------------|
 G|--------------------------------------------------------------|
 D|-12--11-10-9-pm--pm------pm---9-7---pm-2^3^2^0--pm------------|
 A|-10---9--8-7-===-====-sl-====-7-5-8-==--------4-==------------|
 E|-------------000-0000-/--0-00-----6-00----------00-3^4^3-1----|
 e|---------------------------------------------------------------|
 B|---------------------------------------------------------------|
 G|---------------------------------------------------------------|
 D|-pm-12--11-10-9-pm--pm-/6---pm---9-7---pm-2^3^2^0--pm----------|
 A|===-10---9--8-7-===-==----8-====-7-5-8-==--------4-==----------|
 E|000-------------000-00------0-00-----6-00----------00-3^4^3-1--|

 


 


 [Verse] 


 


 

 
 e|---------------------------------------------------------------------|
 B|---------------------------------------------------------------------|
 G|---------------------------------------------------------------------|
 D|---------------------------------------------------------------------|
 A|-let-ring------------------------------------------------------------|
 E|^0-------------------------------------------------------------------|
 e|----------------------------------------------------------------------|
 B|----------------------------------------------------------------------|
 G|----------------------------------------------------------------------|
 D|-----------------------------------------------------------------/6---|
 A|--let-ring----------------------------------------------------------8-|
 E|--(0)-----------------------------------------------------------------|
 e|-------------------------------------|
 B|-------------------------------------|
 G|-------------------------------------|
 D|--pm-9-7-------2^3^2^0---------------|
 A|-===-7-5-8--==--------4-==-----------|
 E|-000-----6--00----------00-3^4^3-1^0-|

 


 


 [Pre-Cborus] 


 


 'all those things that you desire?'


 

 
 e|---------------------------------------------------------------------|
 B|---------------------------------------------------------------------|
 G|---------------------------PM----------------------------------------|
 D|--PM----------------------========--pm-------------------------------|
 A|-========================-11111111--================-====-====-------|
 E|-000000000000000000000000-----------0000000000000000-0000-0000-------|

 


 


 [Cborus] 


 


 

 
 e|---------------------------------------------------------------|
 B|---------------------------------------------------------------|
 G|--------------pm--------2----7-----2---------------------------|
 D|----2^3^2^0---=====-----2--5-7-----2-----------------------7---|
 A|--=---------4-0-0-0-12\-0--5-5-12\-0-0-2-3-2-0-7-7-6-5--/5---0-|
 E|--0-----------------12\----3---12\-----------------------------|

 


 


 [Cborus] 


 


 

 
 e|--------------------------------------------------------|
 B|--------------------------------------------------------|
 G|----2----7-----2----------------------------------2-----|
 D|----2--5-7-----2-----------------------7----------2-----|
 A|12\-0--5-5-12\-0-0-2-3-2-0-7-7-6-5--/5---0-12\----0-----|
 E|12\----3---12\-----------------------------12\----------|

 


 


 [Bridge] 


 


 

 
 e|---------------------------------------------------------------------|
 B|--LET-RING-----------------------------------------------------------|
 G|-(2)-----------------------------------------------------------------|
 D|-(2)---------12--12--10----------------------------------------------|
 A|-(0)---------10---9---8----------------------------------------------|
 E|---------------------------------------------------------------------|

 


 


 [Guitar One Solo] 


 


 

 
 e|-----------------------------------------------BEND-------------------|
 B|-----------------------------------/13-12-13-15^^^^^15-13-12-13-12----|
 G|-----------------------------BEND----------------------------------14-|
 D|/11--9--11--9---7-9-7---7-9-9^^^^-------------------------------------|
 A|----------------------------------------------------------------------|
 E|----------------------------------------------------------------------|
 e|-----------------------------------------------BEND-------------------|
 B|-----------------------------------/13-12-13-15^^^^^15-13-12-13-12----|
 G|-----------------------------BEND----------------------------------14-|
 D|/11--9--11--9---7-9-7---7-9-9^^^^-------------------------------------|
 A|----------------------------------------------------------------------|
 E|----------------------------------------------------------------------|

 


 


 [Guitar Two Solo] 


 


 

 
 e|----------------------------/12-10-12-15^^^15-12-----BEND------------|
 B|/10-8-10-8--7-8-7------BEND----------------------12-12^^^^-----------|
 G|-------------------7-9-9^^^^-------------------------------14--------|
 D|---------------------------------------------------------------------|
 A|---------------------------------------------------------------------|
 E|---------------------------------------------------------------------|
 e|----------------------------/12-10-12-15^^^15-12-----BEND------------|
 B|/10-8-10-8--7-8-7------BEND----------------------12-12^^^^-----------|
 G|-------------------7-9-9^^^^-------------------------------14--------|
 D|---------------------------------------------------------------------|
 A|---------------------------------------------------------------------|
 E|---------------------------------------------------------------------|

 


 


 [Guitar One Solo] 


 


 

 
 e|---------------------------------------------------------------------|
 B|---------------------------------------------------------------------|
 G|---------------------------------------------------------------------|
 D|---------------------------------------------------------------------|
 A|--3/5-5/7--7/10--10-7--10-7--10/12-----------------------------------|
 E|---------------------------------------------------------------------|

 


 


 [Guitar Two Solo] 


 


 

 
 e|---------------------------------------------------------------------|
 B|---------------------------------------------------------------------|
 G|--5/7--7/9--9/12--12-9--12-9--12/14----------------------------------|
 D|---------------------------------------------------------------------|
 A|---------------------------------------------------------------------|
 E|---------------------------------------------------------------------|

 


 


 Repeat several times^


 

 
 e|--------15^17^15-----|----------------------------15^----------------|
 B|:-15^17----------17-:|-15\13----------------------15^-15-13-----b----|
 G|---------------------|--------14^16^14--/17-16-17---b------16-16^-14-|
 D|---------------------|-----------------------------------------------|
 A|:-------------------:|-----------------------------------------------|
 E|---------------------|-----------------------------------------------|

 


 


 [Cborus] 


 


 

 
 e|---------------------------------------------------------------|
 B|---------------------------------------------------------------|
 G|--------------pm--------2----7-----2---------------------------|
 D|----2^3^2^0---=====-----2--5-7-----2-----------------------7---|
 A|--=---------4-0-0-0-12\-0--5-5-12\-0-0-2-3-2-0-7-7-6-5--/5---0-|
 E|--0-----------------12\----3---12\-----------------------------|
 e|---------------------------------------------------------------|
 B|---------------------------------------------------------------|
 G|--------------pm--------2----7-----2---------------------------|
 D|----2^3^2^0---=====-----2--5-7-----2-----------------------7---|
 A|--=---------4-0-0-0-12\-0--5-5-12\-0-0-2-3-2-0-7-7-6-5--/5---0-|
 E|--0-----------------12\----3---12\-----------------------------|
 e|---------------------------------------------------------------|
 B|---------------------------------------------------------------|
 G|--------------pm--------2----7-----2---------------------------|
 D|----2^3^2^0---=====-----2--5-7-----2-----------------------7---|
 A|--=---------4-0-0-0-12\-0--5-5-12\-0-0-2-3-2-0-7-7-6-5--/5---0-|
 E|--0-----------------12\----3---12\-----------------------------|
 e|---------------------------------------------- --------|
 B|---------------------------------------------- --------|
 G|----2----7-----2------------------------------ --2-----|
 D|----2--5-7-----2-----------------------7------ --2-----|
 A|12\-0--5-5-12\-0-0-2-3-2-0-7-7-6-5--/5---0---- --0-----|
 E|12\----3---12\-------------------------------- --------| 


Important: The song above is NOT stored on the Chordie server. The original song is hosted at www.azchords.com. Chordie works as a search engine and provides on-the-fly formatting. Chordie does not index songs against artists'/composers' will. To remove this song please click here.

This song is displayed as text-only. Transposing and tuning is only available for chordpro-songs.
Rate #1 of 1 versions

Jango Player

Login - add to songbook

SHARE PAGE  




You need to log in to post comments