Guitar Tabs, Chords and Lyrics
Server problems seems to be fixed. Chordie has been experiencing problems with songs disappearing. These issues now seems to be fixed, but still verifying the fix. If you find anything strange, please email admin@chordie.com.


Zodiac Love Team   Girls Against Boys

 
 1------------------------------------------
 2-----7-------7--7---7--8--7--5------------
 3-5-------6-----------------------5--7--5--
 4------------------------------------------
 1------------------------------------------
 2-----7-------7--7-------------------------
 3-5-------6----------8--8--8--8---8--8--8--
 4------------------------------------------

 


 


 fill


 


 [1----]  


 [2----]  


 [3----]  


 [4----]  


 [5----]6-0--


 


 chorus


 


 bass guitar


 


 

 
 1----------------
 2----------------
 3-2---3----------
 4---------3---\--

 


 |


 | guitar


 |


 

 
 1----------------
 2----------------
 3----------------
 4----------------
 5----------------
 6---------3---\--

 


 |


 | keys for guitar


 |


 

 
 1-------------------
 2-------------------
 3-------------------
 4-9----10---10------
 5-10---10---12---\--
 6-------------------

 


 


 interlude (bass guitar)


 


 

 
 1-------------------------------
 2-------------------------------
 3--------------------10h11--10--
 4-3---0--0--0-------------------

 


 


 2nd verse - same as first


 


 2nd interlude (bass guitar)


 


 

 
 1------------------------------------------
 2-----7-------7--7-------------------------
 3-5-------6----------8--8--8--8---8--8--8--
 4------------------------------------------
 1-------------------------------------------------
 2-----7-------7--7---10--10--10--10---10--10--10--
 3-5-------6---------------------------------------
 4-------------------------------------------------
 1------------------------------------------
 2-----7-------7--7-------------------------
 3-5-------6----------8--8--8--8---8--8--8--
 4------------------------------------------
 1--------
 2--------

 


 3-8-///--


 

 
 4--------

 


 


 2nd chorus - same as first


 


 3rd interlude - same as 2nd, and listen for this fill (bass guitar)


 


 

 
 1-----------------
 2-12h14---12--12--
 3-----------------
 4-----------------

 


 


 end on


 


 bass guitar


 


 

 
 1------------
 2------------
 3------------
 4------------
 5------------
 6-0h2--0--0--

 


 |


 | guitar


 |


 

 
 1------------
 2------------
 3------------
 4------------
 5------------
 6---------0--


Important: The song above is NOT stored on the Chordie server. The original song is hosted at www.azchords.com. Chordie works as a search engine and provides on-the-fly formatting. Chordie does not index songs against artists'/composers' will. To remove this song please click here.

This song is displayed as text-only. Transposing and tuning is only available for chordpro-songs.
Rate #1 of 1 versions

Login - add to songbook

SHARE PAGE  



You need to log in to post comments