Guitar Tabs, Chords and Lyrics
Server problems seems to be fixed. Chordie has been experiencing problems with songs disappearing. These issues now seems to be fixed, but still verifying the fix. If you find anything strange, please email admin@chordie.com.


No Good Advice  Girls Aloud

Comments or suggestions - Why not mail me?
[Intro] 
| Bb5 (Palm Muted)
|
| (If you want, the slide is from F5 down to Bb5)
|
| Repeated Over 4 Bars
[Verse] 
[Bb5]Daddy told me look into the future
Sit at your computer, [C#5]be a good [Eb5]girl
[Bb5]And Mama said remember your a lady,
Think before your play and [C#5]straighten your [Eb5]curls,
[Bb5]Well everybodys talking like i'm crazy
Danger is a lazy [C#5]girl with no [Eb5]soul
[Bb5]But i've seen it all from where i'm hiding
Baby cause i'm sliding, [C#5]out of con[Eb5]trol
[Pre-Cborus] 
[C#5]Here I go, on the road crank the stereo
[Eb5]I flick my finger to the world below
[C#5]Here I am, dirty hands, i don't give a damn
[Eb5]Shut your mouth and lets [F5]give a show
[Cborus] 
[Bb5]I don't [C#5]need no good ad[Eb5]vice
I'm al[C#5]ready wasted
[Bb5]I don't [C#5]need some other [Eb5]life
Cold and [C#5]complicated
[Bb5]I don't [C#5]need no Sunday trip[Eb5]s
To add [C#5]sympathising
[Bb5]I don't [C#5]need no special f[Eb5]ix
To ana[C#5]esthetise me
[Fill] 
 
 e-----------------------------------|
 B-----------------------------------|
 G-----------------------------------| X 3
 D----------3-3----------------------|
 A--1-1-4-4-----4-4---------3-3------|
 E------------------1-1-4-4-----4-4--|
 e-----------------------------------|----|
 B-----------------------------------| ** |
 G-----------------------------------| |
 D------------------3-3-3-3----------| |Trill Picking
 A--1-1-1-1-4-4-4-4---------4-4-4-4--| |-------------
 E-----------------------------------| |Pick the notes with

|a rapid up and down
 
 e-----------------------------------| |motion, 4 times faster
 B-----------------------------------| |than you play them on
 D-----------------------------------| |the first 3 repeats.
 D-----------------------------------| |
 A------------------3-3-3-3----------| ** |
 E--1-1-1-1-4-4-4-4---------4-4-4-4--|----|

[Intro] 
[Verse] 
Daddy always told me to remember,
Leave the boys, till later, don't you drop down
Mama said I'd never get to heaven
Hang out till eleven, with the wrong crowd
Everybody's talking like I'm only
Just another phony girl who can't play
But i dig the music that i'm making
Baby, and i'll break it into your brain
[Pre-Cborus] 
Here I go, on the road, crank the stereo
I flick my finger to the world below
Here I am, dirty hands, i don't give a damn
Shut your mouth and lets give a show
[Cborus] 
I don't need no good advice
I'm already wasted
I don't need some other life
Cold and complicated
I don't need no Sunday trips
To add sympathising
I don't need no special fix
To anaesthetise me
[Fill] 
[Intro] 
[Pre-Cborus] 
Here I go, on the road, crank the stereo
I flick my finger to the world below
Here I am, dirty hands, i don't give a damn
Shut your mouth and lets give a show
[Cborus] 
I don't need no good advice
I'm already wasted
I don't need some other life
Cold and complicated
I don't need no Sunday trips
To add sympathising
I don't need no special fix
To anaesthetise me
(To Fade...)
 
 -----------

Chords Used
 
 -----------

[Bb5] [C#5] [Eb5] [F5]  
 
 e---------------------|
 B---------------------|
 G--5----6----8----10--|
 D--5----6----8----10--|
 A--1----4----6----8---|
 E---------------------|

It's important that you use 5th and not full chords, as the guitar
in this song needs to be tonically empty - the harmony is all
produced by the synths.
[-----]Notes
[-----]  
A crunchy distortion is best for this song, along with
plenty of palm-muting.
During the pre-chorus (C#5 -> Eb5), hit the chords on
the 2nd and 4th beats.
Listen to the record for timing, the lyrics are there more
as a reference than anything else.
* This version isn't the one you find on the video for this song (with
the talking at the end), and so structurally it may be a bit different
to the one you're used to...

Important: The song above is NOT stored on the Chordie server. The original song is hosted at www.azchords.com. Chordie works as a search engine and provides on-the-fly formatting. Chordie does not index songs against artists'/composers' will. To remove this song please click here.

Text color:
Chord color:
Chord grids: 
Font size:    
Page size: 

Bb5 C#5 Eb5 F5
Rate #1 of 3 versions

Login - add to songbook

SHARE PAGE  



You need to log in to post comments