Guitar Tabs, Chords and Lyrics
Server problems seems to be fixed. Chordie has been experiencing problems with songs disappearing. These issues now seems to be fixed, but still verifying the fix. If you find anything strange, please email admin@chordie.com.


Ne trebam nikome  Goblini

Uvod i prva strofa:
[F#m] [A]  
 
 E-------------------------------------------------
 H-------------------------------------------------
 G-------------------------------------------------
 D----2--4--2-----2--4--2-----2--4--2-----2--4--2--
 A--4--4--4--4--4--4--4--4--4--4--4--4--4--4--4--4-
 E-2-----------2-----------5-----------5-----------

[Fm]Izmisljen za sebe [A]srecan sto postojim
Veceras ja sam u boji noci
Izguzvane misli drzim u ruci
Telefon ne zvoni ne trebam nikome
Fill
 
 H--/5-5-3-2-3-2-

[Fm]Lose je uvek lose [A]a dobra imaju lica
Obuci se i kreni progutaj nesto da zavolis svet
Lazan osmeh i jeftine poglede
Ne podnosim njihov dodir i zato nikom ne pruzam ruku
[B5]Ne trebam [D5]nikome, [A5]moj savrseni par
Ne trebam nikome, srecan sam ovako sam
Ne trebam nikome, ne trebam nikome
H5 D5 F#5....
Ne trebam nikome...
Izmisljen za sebe srecan sto postojim
Veceras ja sam u boji noci
Izguzvane misli drzim u ruci
1Telefon ne zvoni ne trebam nikome
< solo, pa opet>
 
 --------------------------------------------------------------


Important: The song above is NOT stored on the Chordie server. The original song is hosted at www.azchords.com. Chordie works as a search engine and provides on-the-fly formatting. Chordie does not index songs against artists'/composers' will. To remove this song please click here.

Text color:
Chord color:
Chord grids: 
Font size:    
Page size: 

A A5 B5 D5 F#m Fm
Rate #1 of 1 versions

Login - add to songbook

SHARE PAGE  



You need to log in to post comments