Guitar Tabs, Chords and Lyrics
Login is temporarily disabled for some users. Do not panic. Will be back in an hour or two. DO NOT REREGISTER!!


Trag  Goblini

Intro:|Gm Eb |F Bb|x2
intro figure 1:
 
 E|------------------------------|
 B|------------------------------|
 G|--3-2-------------3-2------5\-|
 D|------3-5~--3\--------3-5~----|
 A|------------------------------|
 E|------------------------------|

intro figure 2: x3
 
 E|------------------------|---------------|
 B|------------------------|---------------|
 G|--------7h8p7-----------|----------8~---|
 D|--(5)----------x--5-7-8-|--5-(7)-8------|
 A|------------------------|---------------|
 E|------------------------|---------------|

[Gm]Pomeraj svoje telo - [Eb]ziv[Cm]i
[Gm]Igraj neku igru , [Bb]ne boj se [F]niceg
[Gm]Voli da volis , [Bb]mrzi da mrzis
[F]Ostavi neki trag i [D]nestani tiho
Glavom u [Gm]zid[Eb]
Telom u [Gm]rupu[Eb]
Duhom u [Gm]raj[Eb]
Primer za [Cm]sve
Ljubav me [Gm]vodi[Eb]
Mrznja me [Gm]dize[Eb]
Umem da [Gm]leti[Eb]m
Primer za [D]sve
Postoji lose vreme i lose price
Al' kako dodju tako i odu
Voli da volis , mrzi da mrzis
Ostavi neki trag i nestani tiho
Solo:
|Gm Eb |D |Gm Eb |D |
|Gm |Bb |F |D |
|Gm |Bb |F |D |
........

Important: The song above is NOT stored on the Chordie server. The original song is hosted at www.azchords.com. Chordie works as a search engine and provides on-the-fly formatting. Chordie does not index songs against artists'/composers' will. To remove this song please click here.

Text color:
Chord color:
Chord grids: 
Font size:    
Page size: 

Bb Cm D Eb F Gm
Rate #1 of 1 versions

Jango Player

Login - add to songbook

SHARE PAGE  



You need to log in to post comments