Guitar Tabs, Chords and Lyrics
Major upgrade!! After one year development the new version of Chordie is now online! Please give feedback.


Keep Away   Godsmack

 
 e--------------------------------------------------------
 b--------------------------------------------------------

 


 g 7 7 7 7 7 7 7 7 7 7 7 7 7 7 7 7 7 7 7 7 7 7 7 7


 d x x x x x x x x x x x x x x x x x x x x x x x x 2x w/


 chores effect


 [a] [5] [5] [5] [5] [5] [5] [5] [5] [5] [5] [5] [5] [5] [5] [5] [5] [5] [5] [5] [5] [5] [5] [5] [5] 


 

 
 d--------------------------------------------------------

 


 


 verse


 


 

 
 e----------------------------------------------------
 b----------------------------------------------------
 g----------^-----------------------------------------

 


 d0 0 0 3 3 3 3 3 3 3s5 5 5 5 5 5s6 6 6 6 5 3


 a0 0 0 3 3 3 3 3 3 3s5 5 5 5 5 5s6 6 6 6 5 3


 d0 0 0 3 3 3 3 3 3 3s5 5 5 5 5 5s6 6 6 6 5 3


 


 chores


 

 
 e-----------------------------------------------------------
 b-----------------------------------------------------------

 


 g 7 7 5 5 5 5 5 5 5 5 5 2 2 2s3 3 3 3 3 3 3 3 7 7


 [d]a [7]5 [7]5 [5]3 [5]3 [5]3 [5]3 [5]3 [5]3 [5]3 [5]3 [5]3 [2]0 [2]0 [2s3]0 1 [3]1 [3]1 [3]1 [3]1 [3]1 [3]1 [3]1 [7]5 [7]5


 

 
 d-----------------------------------------------------------

 


 


 e ( )


 b ( 1st chores ) 2nd keeps


 g ( ) going whith


 d 5 5 5 5 5 5 5 5 5 2 2 ( ) the line


 below


 a 3 3 3 3 3 3 3 3 3 0 0 ( )


 d ( 15--slide all the way up )


 


 2nd time threw chores


 


 

 
 e--------------------------------------------------------------
 a--------------------------------------------------------------

 


 g 2 3 3 3 3 3 3 3 7 7 5 5 5 5 5 5 5 5 5 2 2 2 2s3 3


 [d]a [2]0 [3]1 [3]1 [3]1 [3]1 [3]1 [3]1 [3]1 [7]5 [7]5 [5]3 [5]3 [5]3 [5]3 [5]3 [5]3 [5]3 [5]3 [5]3 [2]0 [2]0 [2]0 [2s3]0 1 [3]1


 

 
 d--------------------------------------------------------------
 e--------------------------------------------------------------
 a--------------------------------------------------------------
 g 3 3 3 3 3--7--7--5-5-5-5-5-5-5-5-5 2 2 2 3 3 3 3 5 ------
 d 3 3 3 3 3--7--7--5-5-5-5-5-5-5-5-5 2 2 2 3 3 3 3 5 0-----
 a 1 1 1 1 1--5--5--3-3-3-3-3-3-3-3-3 0 0 0 1 1 1 1 3 0-----
 d--------------------------------------------------------0-----

 


 


 interlude ( before solo)


 

 
 e 0 ------------------------------------

 


 [b]g [3]2 [3]2 [3]2 [3]2 [3]2 [3]1 [3]1 [3]1 [3]1 15x


 d (0) let ring 0 let ring 0 0 0 0 0 0 0 0


 

 
 a (0) 0 ----------------------------- ------
 d (0) 0-------------------------------------
 e--------------------------------------------
 b--------------------------------------------

 


 g10 10 10 10 10 10 10 10s 12 12 12 12 12 12 12


 d x x x x x x x xs x x x x x x x


 a 8 8 8 8 8 8 8 8s 10 10 10 10 10 10 10


 

 
 d--------------------------------------------

 


 


 solo (pretty easy!!!!) w/ wah wah


 


 

 
 e-------------------------------------------------------------
 b-------------------------------------------------------------
 g 13b ~~~~~~~~~~ 13b~~~~~~ 13b~~~~~~ 13 12b 12s10------
 d-------------------------------------------------------------
 a-------------------------------------------------------------
 d-------------------------------------------------------------
 e-------------------------------------------------------------------
 a--------------------------------------------------------------------
 g---10-12-10b----------------------------10b-------------------------
 d12-----------12s10----10--------------0-----12-10---10-----10-12bs10
 a-------------------12-----12s8-8b-0-0-------------12----12----------
 d--------------------------------------------------------------------
 e--------------------------------------------------------------------
 b--------------------------------------------------------------------
 g--------------------------------------------------------------------
 d 12~~~~~~~~~ 12~~~~~~~~~~~~~~ 12~~~~~~~~~~~~ 12~~~~~~~~~~~~-------
 a--------------------------------------------------------------------
 d--------------------------------------------------------------------
 e------------10----10s12-10-----10------13--13--13--13b--13----13-13-13
 b-------13b-----13-----------13-----13b-------------13b-----13----13-13
 g----------------------------------------------------------------------
 d-0---0----------------------------------------------------------------
 a----------------------------------------------------------------------
 d----------------------------------------------------------------------


Important: The song above is NOT stored on the Chordie server. The original song is hosted at www.azchords.com. Chordie works as a search engine and provides on-the-fly formatting. Chordie does not index songs against artists'/composers' will. To remove this song please click here.

This song is displayed as text-only. Transposing and tuning is only available for chordpro-songs.
Rate #1 of 1 versions

Jango Player

Login - add to songbook

SHARE PAGE  




You need to log in to post comments