Guitar Tabs, Chords and Lyrics
Server problems seems to be fixed. Chordie has been experiencing problems with songs disappearing. These issues now seems to be fixed, but still verifying the fix. If you find anything strange, please email admin@chordie.com.


Esoteric Surgery   Gojira

 
 ------------------------------------------------------------------------------|
 ------------------------------------------------------------------------------|
 ------------------------------------------------------------------------------|
 ------------------------------------------------------------------------------|
 ---7---------7-----5-----------5-----3-----------3----------3-----3-----3-----|
 --------7-------7-------7---------7--------7--------7--5-------5-----3-----2--|

 


 Tremolo Picking


 


 

 
 ------------------------------------------------------------------------------|
 ------------------------------------------------------------------------------|
 ------------------------------------------------------------------------------|
 ------------------------------------------------------------------------------|
 --3---7----------7-----5-----------5-----3-----------3---------3--------------|
 -----------7--------7--------7--------7--------7--------7--5-------5--3--2--3-|
 ------------------------------------------------------------------------------|
 ------------------------------------------------------------------------------|
 ------------------------------------------------------------------------------|
 ------------------------------------------------------------------------------|
 -----------7----9-----10--9--5------------5-----3----------3----------3-------|
 --5---7----------------------------7---------7--------7--------7--5------5----|
 ------------------------------------------------------------------------------|
 ------------------------------------------------------------------------------|
 ------------------------------------------------------------------------------|
 ------------------------------------------------------------------------------|
 -3-----3-----3---7---------7-----5-------------5-----3-----------3---------3--|
 ----3-----2----------7--------7---------7---------7---------7-------7--5------|
 ------------------------------------------------------------------------------|
 ------------------------------------------------------------------------------|
 ------------------------------------------------------------------------------|
 ------------------------------------------------------------------------------|
 ------------------------------------------------------------------------------|
 --5--3--2--3--5--7------------------------------------------------------------|
 ------------------------------------------------------------------------------|
 ------------------------------------------------------------------------------|
 ------------------------------------------------------------------------------|
 ------------------------------------------------------------------------------|
 ------------------------------------------------------------------------------|
 --0-0-0--0--0-0-0--0--0-0-0--0--0-0-0--0--0-0-0--0--0-0-0--0--0-0-0--0--------|
 - - - - - - - - - - - - - - - - - - - - - - - - - - - -
 ------------------------------------------------------------------------------|
 ------------------------------------------------------------------------------|
 ------------------------------------------------------------------------------|
 ------------------------------------------------------------------------------|
 ------------------------------------------------------------------------------|
 --3--3--3--3--3--3--3--3--3--2-2-2-2-2-2-2-2-2-2-2-2-2-2-2--------------------|
 - - - - - - - - - - - - - - - - - - - - - - - -
 ------------------------------------------------------------------------------|
 ------------------------------------------------------------------------------|
 ------------------------------------------------------------------------------|
 ------------------------------------------------------------------------------|
 ------------------------------------------------------------------------------|
 --0-0-0--0--0-0-0--0--0-0-0--0--0-0-0--0--0-0-0--0--0-0-0--0--0-0-0--0--------|
 - - - - - - - - - - - - - - - - - - - - - - - - - - - -
 ------------------------------------------------------------------------------|
 ------------------------------------------------------------------------------|
 ------------------------------------------------------------------------------|
 ------------------------------------------------------------------------------|
 ------------------------------------------------------------------------------|
 --3--3--3--3--3--3--3--3--3--2-2-2-2-2-2--3-3-3-3-3--2-2-2-2-2-2-2-2-2-2-2-2--|
 - - - - - - - - - - - - - - - - - - - - - - - - - - -
 ------------------------------------------------------------------------------|
 ------------------------------------------------------------------------------|
 ------------------------------------------------------------------------------|
 ------------------------------------------------------------------------------|
 ------------------------------------------------------------------------------|
 --2-2-2-2-2--3----------------------------------------------------------------|

 


 [-] [-] [-] [-] [-]  


 


 

 
 ------------------------------------------------------------------------------|
 ------------------------------------------------------------------------------|
 ------------------------------------------------------------------------------|
 ------------------------------------------------------------------------------|
 ------------------------------------------------------------------------------|
 --0-0-0--0--0-0-0--0--0-0-0--0--0-0-0--0--0-0-0--0--0-0-0--0--0-0-0--0--------|
 - - - - - - - - - - - - - - - - - - - - - - - - - - - -
 ------------------------------------------------------------------------------|
 ------------------------------------------------------------------------------|
 ------------------------------------------------------------------------------|
 ------------------------------------------------------------------------------|
 ------------------------------------------------------------------------------|
 --3--3--3--3--3--3--3--3--3--2-2-2-2-2-2-2-2-2-2-2-2-2-2-2--------------------|
 - - - - - - - - - - - - - - - - - - - - - - - -
 ------------------------------------------------------------------------------|
 ------------------------------------------------------------------------------|
 ------------------------------------------------------------------------------|
 ------------------------------------------------------------------------------|
 ------------------------------------------------------------------------------|
 --0-0-0--0--0-0-0--0--0-0-0--0--0-0-0--0--0-0-0--0--0-0-0--0--0-0-0--0--------|
 - - - - - - - - - - - - - - - - - - - - - - - - - - - -
 ------------------------------------------------------------------------------|
 ------------------------------------------------------------------------------|
 ------------------------------------------------------------------------------|
 ------------------------------------------------------------------------------|
 ------------------------------------------------------------------------------|
 --3--3--3--3--3--3--3--3--3--2-2-2-2-2-2--3-3-3-3-3--2-2-2-2-2-2-2-2-2-2-2-2--|
 - - - - - - - - - - - - - - - - - - - - - - - - - - -
 ------------------------------------------------------------------------------|
 ------------------------------------------------------------------------------|
 ------------------------------------------------------------------------------|
 -------------5----4-----------------------------------------------------------|
 -------------3----2-----------------------------------------------------------|
 --2-2-2-2-2--3----2-----------------------------------------------------------|

 


 [-] [-] [-] [-] [-]  


 

 
 ------------------------------------------------------------------------------|
 ------------------------------------------------------------------------------|
 ------------------------------------------------------------------------------|
 ------------------------------------------------------------------------------|
 ---7---------7-----5-----------5-----3-----------3----------3-----3-----3-----|
 --------7-------7-------7---------7--------7--------7--5-------5-----3-----2--|
 ------------------------------------------------------------------------------|
 ------------------------------------------------------------------------------|
 ------------------------------------------------------------------------------|
 ------------------------------------------------------------------------------|
 --3---7----------7-----5-----------5-----3-----------3---------3--------------|
 -----------7--------7--------7--------7--------7--------7--5-------5--3--2--3-|
 ------------------------------------------------------------------------------|
 ------------------------------------------------------------------------------|
 ------------------------------------------------------------------------------|
 ------------------------------------------------------------------------------|
 ------------------------------------------------------------------------------|
 --5---7-----------------------------------------------------------------------|
 ------------------------------------------------------------------------------|
 ------------------------------------------------------------------------------|
 ------------------------------------------------------------------------------|
 ------------------------------------------------------------------------------|
 ------------------------------------------------------------------------------|
 --0-0-0--0--0-0-0--0--0-0-0--0--0-0-0--0--0-0-0--0--0-0-0--0--0-0-0--0--------|
 - - - - - - - - - - - - - - - - - - - - - - - - - - - -
 ------------------------------------------------------------------------------|
 ------------------------------------------------------------------------------|
 ------------------------------------------------------------------------------|
 ------------------------------------------------------------------------------|
 ------------------------------------------------------------------------------|
 --3--3--3--3--3--3--3--3--3--2-2-2-2-2-2-2-2-2-2-2-2-2-2-2--------------------|
 - - - - - - - - - - - - - - - - - - - - - - - -
 ------------------------------------------------------------------------------|
 ------------------------------------------------------------------------------|
 ------------------------------------------------------------------------------|
 ------------------------------------------------------------------------------|
 ------------------------------------------------------------------------------|
 --0-0-0--0--0-0-0--0--0-0-0--0--0-0-0--0--0-0-0--0--0-0-0--0--0-0-0--0--------|
 - - - - - - - - - - - - - - - - - - - - - - - - - - - -
 ------------------------------------------------------------------------------|
 ------------------------------------------------------------------------------|
 ------------------------------------------------------------------------------|
 ------------------------------------------------------------------------------|
 ------------------------------------------------------------------------------|
 --3--3--3--3--3--3--3--3--3--2-2-2-2-2-2--3-3-3-3-3--2-2-2-2-2-2-2-2-2-2-2-2--|
 - - - - - - - - - - - - - - - - - - - - - - - - - - -
 ------------------------------------------------------------------------------|
 ------------------------------------------------------------------------------|
 ------------------------------------------------------------------------------|
 ------------------------------------------------------------------------------|
 ------------------------------------------------------------------------------|
 --2-2-2-2-2--3----------------------------------------------------------------|

 


 [-] [-] [-] [-] [-]  


 


 

 
 ------------------------------------------------------------------------------|
 ------------------------------------------------------------------------------|
 ------------------------------------------------------------------------------|
 ------------------------------------------------------------------------------|
 ------------------------------------------------------------------------------|
 --0-0-0--0--0-0-0--0--0-0-0--0--0-0-0--0--0-0-0--0--0-0-0--0--0-0-0--0--------|
 - - - - - - - - - - - - - - - - - - - - - - - - - - - -
 ------------------------------------------------------------------------------|
 ------------------------------------------------------------------------------|
 ------------------------------------------------------------------------------|
 ------------------------------------------------------------------------------|
 ------------------------------------------------------------------------------|
 --3--3--3--3--3--3--3--3--3--2-2-2-2-2-2-2-2-2-2-2-2-2-2-2--------------------|
 - - - - - - - - - - - - - - - - - - - - - - - -
 ------------------------------------------------------------------------------|
 ------------------------------------------------------------------------------|
 ------------------------------------------------------------------------------|
 ------------------------------------------------------------------------------|
 ------------------------------------------------------------------------------|
 --0-0-0--0--0-0-0--0--0-0-0--0-0-0-0-0-0-0-0-0-0-0----------------------------|
 - - - - - - - - - - -
 ------------------------------------------------------------------------------|
 ------------------------------------------------------------------------------|
 ------------------------------------------------------------------------------|
 ------------------------------------------------------------------------------|
 ---2-2-2-2-2--3-3-3--2-2-2-2-2--3-3-3--2-2-2--3-3-3--0-0-0-0-0----------------|
 ----------------------------------------------------------------3-3-3--2-2-2--|
 ------------------------------------------------------------------------------|
 ------------------------------------------------------------------------------|
 ------------------------------------------------------------------------------|
 ------------------------------------------------------------------------------|
 ----------------------------2-2-2-2-2--3-3-3--2-2-2-2-2--3-3-3--2-2-2--3-3-3--|
 --0-0-0--0--0--0--0--0--0-----------------------------------------------------|
 - - - - - - - - -
 ---------------------------------------------------------|--------------------|
 ---------------------------------------------------------|--------------------|
 ---------------------------------------------------------|--------------------|
 ---------------------------------------------------------|--------------------|
 --0-0-0--3-3-3--7-7-7--5-5-5-----------------------------|--------------------|
 ------------------------------0-0-0--0--0--0--0--0--0----|--------------------|
 - - - - - - - - -
 ------------------------------------------------------------------------------|
 ------------------------------------------------------------------------------|
 ------------------------------------------------------------------------------|
 ------------------------------------------------------------------------------|
 ---7---------7-----5-----------5-----3-----------3----------3-----3-----3-----|
 --------7-------7-------7---------7--------7--------7--5-------5-----3-----2--|
 ------------------------------------------------------------------------------|
 ------------------------------------------------------------------------------|
 ------------------------------------------------------------------------------|
 ------------------------------------------------------------------------------|
 --3---7----------7-----5-----------5-----3-----------3---------3--------------|
 -----------7--------7--------7--------7--------7--------7--5-------5--3--2--3-|
 ------------------------------------------------------------------------------|
 ------------------------------------------------------------------------------|
 ------------------------------------------------------------------------------|
 ------------------------------------------------------------------------------|
 ------------------------------------------------------------------------------|
 --5---7-----------------------------------------------------------------------|
 -------------------------------------------------------------------------|----|
 -------------------------------------------------------------------------|----|
 -------------------------------------------------------------------------|----|
 --4--------4--------4---------------------------------5--------5---------|----|
 --3--------3--------3---------------2--------2--------x--------x---------|----|
 --2--0--0--2--0--0--2--0--0--2h3-3--0--0--0--0--0--0--3--0--0--3--0--0---|----|
 - - - - - - - - - - - -
 ----------------------------||------------------------------------------------|
 ----------------------------||------------------------------------------------|
 ----------------------------||------------------------------------------------|
 ----------------------------||------------------------------------------------|
 ---3--2--0--2--0------------||------------------------------------------------|
 ------------------3--2------||------------------------------------------------|
 - - - - - - -
 ------------------------------------------------------------------------------|
 ------------------------------------------------------------------------------|
 ------------------------------------------------------------------------------|
 -----------------------------------0------------------------------------------|
 -------3------3-----3------------------------3------3-----3----3---/7---5-----|
 --7-------7------7-----5---3---2--------7-------7------7-----5----------------|

 


 


 Guitar I


 

 
 ------------------------------------------------------------------------------|
 ------------------------------------------------------------------------------|
 ---------14-14-14-14-14-14---16-16-16-16-16--17-17-17-17-17-17-17-17-17-17----|
 ----------x--x--x--x--x--x----x--x--x--x--x---x--x--x--x--x--x--x--x--x--x----|
 ---------12-12-12-12-12-12---14-14-14-14-14--15-15-15-15-15-15-15-15-15-15----|
 ------------------------------------------------------------------------------|
 ------------------------------------------------------------------------------|
 ------------------------------------------------------------------------------|
 -16-16-16-16-16-16-16-16-16---14-14-14-14-14-14-14-14-14--16-16-16--14-14-14--|
 --x--x--x--x--x--x--x--x--x----x--x--x--x--x--x--x--x--x---x--x--x---x--x--x--|
 -14-14-14-14-14-14-14-14-14---12-12-12-12-12-12-12-12-12--14-14-14--12-12-12--|
 ------------------------------------------------------------------------------|
 ------------------------------------------------------------------------------|
 ------------------------------------------------------------------------------|
 --12-12-12-12-12--11-11-11-11-11-11-11-11-------------------------------------|
 ---x--x--x--x--x---x--x--x--x--x--x--x--x-------------------------------------|
 --10-10-10-10-10---9--9--9--9--9--9--9--9-------------------------------------|
 ------------------------------------------------------------------------------|

 


 


 Guitar II


 

 
 ------------------------------------------------------------------------------|
 ------------------------------------------------------------------------------|
 ------------------------------------------------------------------------------|
 ------------------------------------------------------------------------------|
 ------------------------------------------------------------------------------|
 --5-5-5-5-5--7-7-7-7-7--5-5-5-5-5--7-7-7--5-5-5--3-3-3-3-3--7-7-7--2-2-2-2-2--|
 ------------------------------------------------------------------------------|
 ------------------------------------------------------------------------------|
 ------------------------------------------------------------------------------|
 ------------------------------------------------------------------------------|
 ------------------------------------------------------------------------------|
 -2-2-2-2---5-5-5-5-5--7-7-7-7-7---5-5-5-5-5--7-7-7--5-5-5--3-3-3-3-3-3-3-3-3--|
 ------------------------------------------------------------------------------|
 ------------------------------------------------------------------------------|
 ------------------------------------------------------------------------------|
 ------------------------------------------------------------------------------|
 ------------------------------------------------------------------------------|
 -2-2-2-2-2-2-2-2-2------------------------------------------------------------|


Important: The song above is NOT stored on the Chordie server. The original song is hosted at www.azchords.com. Chordie works as a search engine and provides on-the-fly formatting. Chordie does not index songs against artists'/composers' will. To remove this song please click here.

This song is displayed as text-only. Transposing and tuning is only available for chordpro-songs.
Rate #1 of 1 versions

Login - add to songbook

SHARE PAGE  




You need to log in to post comments