Guitar Tabs, Chords and Lyrics
Login is temporarily disabled for some users. Do not panic. Will be back in an hour or two. DO NOT REREGISTER!!


Low Lands   Gojira

 
 |----------------|
 D|-----------------------------------------|----------| |
 A|-----------------------------------------|----------| |
 F|-----------------------------------------|----------| |
 C|-6-6-x-6-6-x-6-6-x-6-6-x-6-6-x-6-6-x-6-6-|----------| |
 G|-----------------------------------------|7-7-x-7-7-| |
 D|-----------------------------------------|----------| |(x2)

 


 |


 

 
 D|-----------------------------------------------------------------------| |
 A|-----------------------------------------------------------------------| |
 F|-----------------------------------------------------------------------| |
 C|-----------------------------------------------------------------------| |
 G|-10-10-x-10-10-x-10-10-x-10-10-x-10-10-x-10-10-x-10-10-x-10-10-x-10-10-| |
 D|-----------------------------------------------------------------------| |----------------|
 D|-----------------------------------------------------------------------| |----------------|
 A|-----------------------------------------------------------------------| |
 F|-----------------------------------------------------------------------| |
 C|-10-10-x-10-10-x-10-10-x-10-10-x-10-10-x-10-10-x-10-10-x-10-10-x-10-10-| |
 G|-----------------------------------------------------------------------| |
 D|-----------------------------------------------------------------------| |

 


 |


 

 
 D|-----------------------------------------------------| | (x2)
 A|-----------------------------------------------------| |
 F|-----------------------------------------------------| |
 C|-9-9-x-9-9-x-9-9-x-9-9-x-9-9-x-9-9-x-9-9-x-9-9-x-9-9-| |
 G|-----------------------------------------------------| |
 D|-----------------------------------------------------| |----------------|

 


 


 "In all there is to learn...":


 


 

 
 D|-----|------|-----|
 A|-----|------|-----|
 F|-----|------|-----|
 C|-9TR-|-10TR-|-9TR-|
 G|-----|------|-----|
 D|-----|------|-----|

 


 


 (Repeat Intro/Verse again)


 


 "You're invisible, you're in everything..."


 


 

 
 D|--------------|
 A|--------------|
 F|--------------|

 


 C|-6TR-6TRb-6TR-|


 

 
 G|--------------|
 D|--------------|

 


 


 "While you drift away from the plagues of this world..."


 


 [Guitar I] (Tremelo pick intro riff)


 [Guitar II] - I think this part is just picking (about 20 times each?):


 


 

 
 D|-------| |-------|
 A|-------| |-------|
 F|-------| |-------|
 C|-------| |-------|
 G|-------| |-------|(x2)

 


 D|-4(x20)| |-3(x20)|


 


 


 "You won't have to face it..."


 


 [Guitar I}: Guitar II]:


 

 
 D|---------|--------| D|--------|--------|
 A|---------|--------| A|--------|--------|
 F|---------|--------| F|--------|--------|
 C|-10(x15)-|-9(x15)-| C|--------|--------|
 G|---------|--------| G|--------|--------|(x2)
 D|---------|--------| D|-8(x20)-|-0(x20)-|
 D|-------------------------------------|
 A|-------------------------------------|
 F|-------------------------------------|
 C|-6~----6~-----6~--5~-----5~-----5~---|(x2)
 G|-------------------------------------|
 D|--0~-0~--0~-0~--0~--0~-0~--0~-0~--0~-|

 


 


 [Breakdown] Note - The labels (1st,2nd,etc) are referring to the octaves


 


 [Botb guitars] 


 1st: 2nd: 3rd: 4th: 5th:


 

 
 D|---------------------|----------------|-----|---------------------|--------------------|
 A|---------------------|----------------|-----|---------------------|--------------------|
 F|---------------------|----------------|-----|---------------------|--------------------|
 C|-6-------6-------6---|-5-------5------|-5/7-|-10------10------10--|-9-------9-------9b-| (Repeat this until
 G|-x-------x-------x---|-x-------x------|-x---|-x-------x-------x---|-x-------x-------x--| all instruments
 D|-4-0~-0~-4-0~-0~-4-0~|-3-0~-0~-3-0~-0~|-3/5-|-8-0~-0~-8-0~-0~-8-0~|-7-0~-0~-7-0~-0~-7b-| stop playing)
 D|--------------|
 A|--------------|

 


 F|-16~-16~-16b~-|


 

 
 C|--------------|(Guitar II plays this
 G|--------------|instead of 5th octave)
 D|--------------|

 


 


 [Acoustic Outro]- (Put lines through just incase it causes confusion):


 


 

 
 D|---------|--------|------------|----------|
 A|---------|--------|------------|----------|
 F|---------|--------|------------|----------|
 C|---10~---|--------|-5~---------|-5~-------|
 G|-12---10~|-7p5h7b~|------------|---8-7-8--|
 D|---------|--------|---5p3h5~-5*|--------5~|


Important: The song above is NOT stored on the Chordie server. The original song is hosted at www.azchords.com. Chordie works as a search engine and provides on-the-fly formatting. Chordie does not index songs against artists'/composers' will. To remove this song please click here.

This song is displayed as text-only. Transposing and tuning is only available for chordpro-songs.
Rate #1 of 1 versions

Jango Player

Login - add to songbook

SHARE PAGE  



You need to log in to post comments