Guitar Tabs, Chords and Lyrics
Server problems seems to be fixed. Chordie has been experiencing problems with songs disappearing. These issues now seems to be fixed, but still verifying the fix. If you find anything strange, please email admin@chordie.com.


Pray   Gojira

 
 D|---------------------------------------------------------------------------|
 A|---------------------------------------------------------------------------|
 F|---------------------------------------------------------------------------|
 C|---------------------------------------------------------------------------|
 G|---------------------------------------------------------------------------|
 C|-0-0-0-0-0-0-0-0-0-0-0-0-0-0-0-0-0-0-0-0-0-0-0-0-0-0-0-0-0-0-0-0-0-0-0-0-0-|

 


 * * * * * * * * * * * * * * * * * * * * * * * * * * * * * * * * * * * * *


 


 0:43-0:53


 

 
 D|---------------------------------------------------------------------------|
 A|---------------------------------------------------------------------------|
 F|---------------------------------------------------------------------------|
 C|---------------------------------------------------------------------------|
 G|---------------------------------------------------------------------------|
 C|-3-3-3-3-3-3-3-3-3-3-3-3-3-3-3-3-3-3-3-3-3-3-3-3-3-3-3-3-3-3-3-3-3-3-3-3-3-|

 


 * * * * * * * * * * * * * * * * * * * * * * * * * * * * * * * * * * * * *


 


 0:53-1:27


 

 
 D|--------------------------------------|
 A|--------------------------------------|
 F|--------------------------------------|
 C|--------------------------------------|
 G|--------------------------------------|
 C|-000--0-0--000--0-0--000--0-0-0-0-0-0-|

 


 *** * * *** * * *** * * * * * *


 


 

 
 D|-----------------------------------------------------|
 A|-----------------------------------------------------|
 F|-----------------------------------------------------|
 C|-----------------------------------------------------|
 G|-----------------------------------------------------|
 C|-000--0-0--000--0-0--000--0-0--000--0-0--000-0-0-0-0-|

 


 *** * * *** * * *** * * *** * * *** *


 


 [Verse] 


 1:27-1:41


 We pray pray for the light to reign


 

 
 D|---------|-------------------|----------|
 A|---------|-------------------|----------|
 F|-10----9-|-10---9----10---12-|-9----10~-|
 C|-x-----x-|-x----x----x----x--|-x----x---|
 G|-8-----7-|-8----7----8----10-|-7----8~--|
 C|---------|-------------------|----------|

 


 


 1:41-1:55


 We call we call the day


 

 
 D|----------|------------------|-----------|
 A|----------|------------------|-----------|
 F|-5------4-|-5----4----5----2-|-----------|
 C|-x------x-|-x----x----x----x-|-----------|
 G|-3------2-|-3----2----3----0-|-----------|
 C|----------|------------------|-0~------3-|

 


 


 1:55-2:10


 We rise pray for the wind to blow


 

 
 D|---------|-------------------|----------|
 A|---------|-------------------|----------|
 F|-10----9-|-10---9----10---12-|-9----10~-|
 C|-x-----x-|-x----x----x----x--|-x----x---|
 G|-8-----7-|-8----7----8----10-|-7----8~--|
 C|---------|-------------------|----------|

 


 


 2:10-2:23


 We know we know the way


 

 
 D|----------|------------------|-----------|
 A|----------|------------------|-----------|
 F|-5------4-|-5----4----5----2-|-----------|
 C|-x------x-|-x----x----x----x-|-----------|
 G|-3------2-|-3----2----3----0-|-----------|
 C|----------|------------------|-0~------3-|

 


 


 [Cborus] 


 2:23-2:42


 No faith in your world create my own to thrive


 

 
 D|-----------------------------------------0-|
 A|-----------------------------------------0-|
 F|-----------------------------------------0-|
 C|-3--2-------------------------------0------|
 G|-3--2-------------------------------0------|
 C|-3--2----2-2-2-2-2-2-2-2-2-2-2-2----0------|

 


 * * * * * * * * * * * *


 


 [Bridge] 


 2:42-2:45


 

 
 D|----------------------------------|
 A|----------------------------------|
 F|----------------------------------|
 C|-3*-4*-5*-6*-7*-8*-9*-10*-11*-12*-|
 G|-3*-4*-5*-6*-7*-8*-9*-10*-11*-12*-|
 C|-3*-4*-5*-6*-7*-8*-9*-10*-11*-12*-|

 


 


 [Verse] 


 2:45-2:58


 We pray pray for the light to reign


 

 
 D|---------|-------------------|----------|
 A|---------|-------------------|----------|
 F|-10----9-|-10---9----10---12-|-9----10~-|
 C|-x-----x-|-x----x----x----x--|-x----x---|
 G|-8-----7-|-8----7----8----10-|-7----8~--|
 C|---------|-------------------|----------|

 


 


 2:58-3:12


 We call we call the day


 

 
 D|----------|------------------|-----------|
 A|----------|------------------|-----------|
 F|-5------4-|-5----4----5----2-|-----------|
 C|-x------x-|-x----x----x----x-|-----------|
 G|-3------2-|-3----2----3----0-|-----------|
 C|----------|------------------|-0~------3-|

 


 


 [Bridge] 


 3:12-3:24


 

 
 D|--------------------------------------|
 A|--------------------------------------|
 F|--------------------------------------|
 C|--------------------------------------|
 G|--------------------------------------|
 C|-000--0-0--000--0-0--000--0-0-0-0-0-0-|

 


 *** * * *** * * *** * * * * * *


 


 

 
 D|-----------------------------------------------------|
 A|-----------------------------------------------------|
 F|-----------------------------------------------------|
 C|-----------------------------------------------------|
 G|-----------------------------------------------------|
 C|-000--0-0--000--0-0--000--0-0--000--0-0--000-0-0-0-0-|

 


 *** * * *** * * *** * * *** * * *** *


 


 [Cborus] 


 3:24-3:33 Do this 4 times


 No faith in your world create my own to thrive


 

 
 D|-----------------------------------------0-|
 A|-----------------------------------------0-|
 F|-----------------------------------------0-|
 C|-3--2-------------------------------0------|
 G|-3--2-------------------------------0------|
 C|-3--2----2-2-2-2-2-2-2-2-2-2-2-2----0------|

 


 * * * * * * * * * * * *


 


 3:33-3:36


 

 
 D|-------------------------------------------------|
 A|-------------------------------------------------|
 F|-------------------------------------------------|
 C|-3--2--------------------------------------------|
 G|-3--2--------------------------------------------|
 C|-3--2----2-2-2-2-2-2-2-2-2-2-2-2-2-2-2-2-2-2-2-2-|

 


 * * * * * * * * * * * * * * * * * * * *


 


 [Cborus] 


 3:36-3:47 Do this 4 times, on the 4th time hold out the open high notes.


 No faith in your world create my own to thrive


 

 
 D|-----------------------------------------0-|
 A|-----------------------------------------0-|
 F|-----------------------------------------0-|
 C|-3--2-------------------------------0------|
 G|-3--2-------------------------------0------|
 C|-3--2----2-2-2-2-2-2-2-2-2-2-2-2----0------|

 


 * * * * * * * * * * * *


 


 3:47-3:57


 

 
 D|-----------------------|-----------------------|
 A|-----------------------|-----------------------|
 F|-----------------------|-----------------------|
 C|-----------------------|-----------------------|
 G|-----------------------|-----------------------|
 C|-1p0--0-0-0-0--0--0--0-|-1p0--0-0-0-0--0--0--0-|

 


 * * * * * * * *


 

 
 D|-----------------------|--------------------------------0-|
 A|-----------------------|--------------------------------0-|
 F|-----------------------|--------------------------------0-|
 C|-----------------------|---------------------------0------|
 G|-----------------------|---------------------------0------|
 C|-1p0--0-0-0-0--0--0--0-|-1p0--0-0-0-0-0-0-0-0-0----0------|

 


 * * * * * * * * * * * * *


 


 Breakdown


 3:57-4:06


 

 
 D|-----------------------|-----------------------|
 A|-----------------------|-----------------------|
 F|-----------------------|-----------------------|
 C|-----------------------|-----------------------|
 G|-----------------------|-----------------------|
 C|-1p0--0-0-0-0--0--0--0-|-1p0--0-0-0-0--0--0--0-|

 


 * * * * * * * *


 

 
 D|-----------------------|----------------------------------|
 A|-----------------------|----------------------------------|
 F|-----------------------|----------------------------------|
 C|-----------------------|-3*-4*-5*-6*-7*-8*-9*-10*-11*-12*-|
 G|-----------------------|-3*-4*-5*-6*-7*-8*-9*-10*-11*-12*-|
 C|-1p0--0-0-0-0--0--0--0-|-3*-4*-5*-6*-7*-8*-9*-10*-11*-12*-|

 


 * * * *


 


 4:06-4:16


 

 
 D|-----------------------|--------------------------|
 A|-----------------------|--------------------------|
 F|-----------------------|--------------------------|
 C|-----------------------|--------------------------|
 G|-----------------------|--------------------------|
 C|-1p0--0-0-0-0--0--0--0-|-1p0--0-0-0-0--0--0--0--0-|

 


 * * * * * * * *


 

 
 D|-----------------------|------------------------------|
 A|-----------------------|------------------------------|
 F|-----------------------|------------------------------|
 C|-----------------------|------------------------------|
 G|-----------------------|------------------------------|
 C|-1p0--0-0-0-0--0--0--0-|-000--000--000--000--000--000-|

 


 * * * * *** *** *** *** *** ***


 [Verse] 


 4:18-4:28


 We rise pray for the wind to blow


 

 
 D|---------|-------------------|----------|
 A|---------|-------------------|----------|
 F|-10----9-|-10---9----10---12-|-9----10~-|
 C|-x-----x-|-x----x----x----x--|-x----x---|
 G|-8-----7-|-8----7----8----10-|-7----8~--|
 C|---------|-------------------|----------|

 


 


 [Outro] 


 4:28-end


 

 
 D|-----------|----------------|---------------|---------------|
 A|-----------|----------------|---------------|---------------|
 F|-----------|----------------|---------------|---------------|
 C|-----------|----------------|---------------|---------------|
 G|-----------|----------------|---------------|---------------|
 C|-000--000--|-000--000--000--|-000--000--000-|-000--000--000-|


Important: The song above is NOT stored on the Chordie server. The original song is hosted at www.azchords.com. Chordie works as a search engine and provides on-the-fly formatting. Chordie does not index songs against artists'/composers' will. To remove this song please click here.

This song is displayed as text-only. Transposing and tuning is only available for chordpro-songs.
Rate #1 of 1 versions

Jango Player

Login - add to songbook

SHARE PAGE  




You need to log in to post comments