Guitar Tabs, Chords and Lyrics
Songbooks are teporarily down. Dont panic. Working on recovering it. Dont save new songs in songbooks!


Pecan Pie  Golden Smog

riff 1
 
 e|----------0-0-0---------3-3-3-3-2-2-2-2--|
 B|----------1-1-1---------3-3-3-3-3-3-3-3--|
 G|----------0-0-0-0-0-0-0-0-0-0-0-2-2-2-2--|
 D|----------2-2-2-4-2-4-2-0-0-0-0-0-0-0-0--|
 A|----0-2-3-3-3-3-3-3-3-3-2-2-2-2-0-0-0-0--|
 E|--3---------------------3-3-3-3----------|

riff 2
 
 e|--0-0-0----|
 B|--1-1-1----|
 G|--0-0-0----|
 D|--2-2-0h2--|
 A|--3-3-3----|
 E|--3-3-3----|

G C/G riff 2
As I, walk along and stumble,
G C/G riff 2
Trains rumble in my head.
G C/G riff 2
As I breathe along and grumble,
G C/G riff 2
I think about you instead.
riff 3
 
 e|----------0-0-0--|
 B|----------1-1-1--|
 G|----------0-0-0--|
 D|----------2-2-2--|
 A|----0-2-3-3-3-3--|
 E|--3--------------|

riff 3 CaddF# G D
And a piece of the pecan pie
[C]And y[CaddF#]ou, that's all I w[G]ant.[D]
[C]Just [CaddF#]a piece of pecan p[G]ie.[D]
[C]And a[CaddF#]ll I want is y[G]ou.[D]
G C/G riff 2
Sometimes I get so hungry
G C/G riff 2
I think about pie all day.
G C/G riff 2
Just a little whipped cream
G C/G riff 2
And honey, I'm on my way.
riff 3 CaddF# G D
And a piece of the pecan pie
[C]And y[CaddF#]ou, that's all I w[G]ant.[D]
[C]Just [CaddF#]a piece of pecan p[G]ie.[D]
[C]And a[CaddF#]ll I want is y[G]ou.[D]
G C/G riff 2
Now don't you call me Key Lime
G C/G riff 2
You're the apple of my eye
G C/G riff 2
And don't you know I'll be fine
G C/G riff 2
Whenever you're by my side.
riff 3 CaddF# G D
And a piece of the pecan pie
[C]And y[CaddF#]ou, that's all I w[G]ant.[D]
[C]Just [CaddF#]a piece of pecan p[G]ie.[D]
[C]And a[CaddF#]ll I want is y[G]ou.[D]

Important: The song above is NOT stored on the Chordie server. The original song is hosted at www.azchords.com. Chordie works as a search engine and provides on-the-fly formatting. Chordie does not index songs against artists'/composers' will. To remove this song please click here.

Text color:
Chord color:
Chord grids: 
Font size:    
Page size: 

C D G
Rate #1 of 1 versions

Jango Player

Login - add to songbook

SHARE PAGE  




You need to log in to post comments