Guitar Tabs, Chords and Lyrics
Update 25:10. 13:00. Site is back up running again. Songbooks are recovered. Woring on getting search back up..


One Night  Goo Goo Dolls

ONE NIGHT GOO GOO DOLLS
Intro chords F#m-E-Bm-F#m
Intro lead
 
 E-----------------------------------------------------------------------------|
 A-----------------------------------------------------------------------------|
 D--------- 11---------14-11-14-------14-11-----------14-11--14-11-11-11-14-11-|
 G-13/14\-13----14-11------------14-11------11---14-11------11-----------------|
 B-----------------------------------------------------------------------------|
 E-----------------------------------------------------------------------------|
 E---------------------------------------------------------------------------|
 A---------------------------------------------------------------------------|
 D-11------14-11--14---------14-11------------14-11----14-11-11-11-14-11-----|
 G---14-11-------------14-11-------11---14-11-------11-----------------------|
 B---------------------------------------------------------------------------|
 E---------------------------------------------------------------------------|

G[F#m]od you still amaze me when y[E]ou speak to me that way
the [Bm]sound of your voice the look in your eyes you[F#m] stand there in your place
You [F#m]told me that the scars you bear are [E]beautiful and real
So t[Bm]urn the lights back on, again I want to [F#m]see the things you feel
CHORUS
And w[Am]e've got one night, to let the who[E]le world know
Just how pe[Bm]rfect we could be, just c[D]lose your eyes and then you'll see
W[Am]e've got one night, to [E]let the whole world know
Fo[Bm]rget about the falling stars,[D] tonight we'll show them who we are, we [Am]are
lead guitar 2nd verse
Riff 1 (repeats) Riff 2"you reach out and pull me back...
 
 E---------------------- E---------------------------|
 A---------------------- A---------------------------|
 D--11------------------- D---------------------------|
 G------9--11------11----- G-11--14-13??14--11--9??11----|
 B---------------10------- B---------------------------|
 E----------------------- E---------------------------|

[F#m] I feel it when you're near me and[E] I know when you're not there
[Bm] I'm on the edge and so alone, and n[F#m]o one seems to care
But you reach out and pull me back, and [E]love me til I'm free
All the j[Bm]oy in my life I feel I've lost, you[F#m] see inside of me
CHORUS
lead guitar-play twice*
 
 E------------------------------------------------------------------------------|
 A------------------------------------------------------------------------------|
 D------------------------------------------------------------------------------|
 G------------------------------------------------------------------------------|
 B------------------------------------------------------------10-------10-------|
 E-9-12--9-12??9h12(x4)----7--9(X4)--7--9--7----10-9----10--9--------------------|

Chorus
And w[Am]e've got one night to let the w[E]hole world know
Just how[F#] perfect we can be c[D]lose your eyes and then you'll see
[Am]we've got one night to let the w[E]hole world know
[Am]forget about the falling stars t[D]onight we'll show them who we are
BRIDGE
[Bm] [D] [F#m]  
we ar[G]e...Life's a song I'll sing,and it doesn't matter anymore, if anyone is
listening to [D]me Ca[F#]use you move like light and d[G]escend on me
you ge[Am]ntly pull me through my lif[Bm]e
INSTRUMENTAL CHORDS Bm-D-Am,
[Bm-G-D-Am]lead guitar
 
 E--------------------------------------------------------------------|
 A--------------------------------------------------------------------|
 D-4-------4----4-----------------4---------4--------4----------------|
 G--2-4------2----4-2-2----2-4------2----4-----2--4-----2-2---2-4-----|
 B -----3------3--------3-------------3----------3----------3---------|
 E--------------------------------------------------------------------|
 E-------------------------------------------------------------------------|
 A-------------------------------------------------------------------------|
 D-4-----------------------4--------------------4--------------------------|
 G--2-2-4--4----2-4-2-4------2-2-4-4---4-2-4-2----2-2--4-4--4-2-4-2---4b---|
 B-----------3-----------------------3---------------------3---------------|
 E-------------------------------------------------------------------------|

CHORUS
(note- end song on F#m)

Important: The song above is NOT stored on the Chordie server. The original song is hosted at www.azchords.com. Chordie works as a search engine and provides on-the-fly formatting. Chordie does not index songs against artists'/composers' will. To remove this song please click here.

Text color:
Chord color:
Chord grids: 
Font size:    
Page size: 

Am Bm D E F# F#m G
Rate #1 of 4 versions

Jango Player

Login - add to songbook

SHARE PAGE  



You need to log in to post comments