Guitar Tabs, Chords and Lyrics
Update 25:10. 13:00. Site is back up running again. Songbooks are recovered. Woring on getting search back up..


I Miss You  Go Radio

(Tuning: Standard - E,A,D,G,B,e)
Intro:
 
 e|--------------7h8-7---|-------------|-----------7h8-7--|------------------|
 B|---1‚??1‚??1-1/5--------8-|-5-----5-----|-1-1-1-1/5-------8|-8/10-10/12---13--|
 G|----------------------|--7-7----7-5-|------------------|------------------|
 D|----------------------|-------------|------------------|------------------|
 A|----------------------|-------------|------------------|------------------|
 E|----------------------|-------------|------------------|------------------|

Verse:
Rhythm Guitar
Cadd9, F 8x
Wait this isn‚??t me that you‚??re talking to
This is a front that I put on, the verse
In every song, in every word
And say whatever you can
The story‚??s a lie, they fed us an ending that left us alright
And this is the world, and this is the page
Lead (play around with this)
 
 e|-------1-0-----|-------3--0----|
 B|-1-3-1-----3-1-|‚??1‚??3-1-----3-1-|
 G|---------------|---------------| 8x
 D|---------------|---------------|
 A|---------------|---------------|
 E|---------------|---------------|

Pre-Chorus:
Rhythm
 
 e|-------------------------------|
 B|-------------------------------|
 G|-------------------------------|
 D|-7---5-------------------------|
 A|-7---5(let ring)---------------|
 E|-5---3-------------------------|

Lead
 
 e|------------------------------|
 B|---5‚??--6-‚??-8(let ring)--------|
 G|------------------------------|
 D|------------------------------|
 A|------------------------------|
 E|------------------------------|

Chorus:
Rhythm
[C]And right now where you [Em]are I guess you‚??re ov[F]er it
[Am]But I can‚??t see
[Em]How you without me
[F]Could possibly make any [Am]sense[G]
[C]And right now all you n[Em]eed is just some time to [F]mend
[Am]Oh well take all you need
But m[Em]y sanity is for[F]ever riding on [Am]this[G]
F G(let ring)
Spell it I M-I-S-S
I miss you
Lead 2x(figure out the timing)
 
 e|-----------|----------------------------2h3‚??-1-0-----------5-------3------|
 B|-5h6--5--3-|----------5h6‚??-5-3‚??--3‚??-1------------3‚??-3‚??-1---5(bend)-3(bend)|
 G|-----------|-5--5--5------------------2------------------2----------------|
 D|-----------|--5--5--------------------------------------------------------|
 A|-----------|--------------------------------------------------------------|
 E|-----------|--------------------------------------------------------------|
 e|----------------------------------------|
 B|---5‚??--6-‚??-8---8/10---8(let ring)-------|
 G|----------------------------------------|
 D|----------------------------------------|
 A|----------------------------------------|
 E|----------------------------------------|

Repeat: Intro, Verse, Pre-Chorus and Chorus
Bridge:
Rhythm
Cadd9, F 5x
Lead
 
 e|-------------------------------|
 B|---55555666666-----------------|
 G|---55555555555‚??-2x-------------|
 D|-------------------------------|
 A|-------------------------------|
 E|-------------------------------|
 e|-------------------------------|--------------------------------------|
 B|-------------------------------|--------------------------------------|
 G|-------0(let ring)-1/2-0-------|--------0(let ring)-1/2-0---0---------|
 D|---0‚??2-------------------2-0---|----0-2-------------------2---3-------|
 A|-3---------------------------3-|--3-----------------------------------|
 E|-------------------------------|--------------------------------------|

And she‚??s c[Em]allin[F]g out the[G] words, so we sing some more
Chorus 2x, end on G
| / slide up
| \ slide down
| h hammer-on
| p pull-off
| ~ vibrato
| + harmonic
| x Mute note
============================================================================

Important: The song above is NOT stored on the Chordie server. The original song is hosted at www.azchords.com. Chordie works as a search engine and provides on-the-fly formatting. Chordie does not index songs against artists'/composers' will. To remove this song please click here.

Text color:
Chord color:
Chord grids: 
Font size:    
Page size: 

Am C Em F G
Rate #1 of 2 versions

Jango Player

Login - add to songbook

SHARE PAGE  



You need to log in to post comments