Guitar Tabs, Chords and Lyrics
Major upgrade!! After one year development the new version of Chordie is now online! Please give feedback.


Tomorrow Comes Today  Gorillaz

Tuning: Standard
FOR THE MELODY (played with piano) THAT STARTS AT 00:12
 
 e|-------4---7-----------4-------4---7---|
 B|---4-----------0---2-------4-----------|
 G|---------------------------------------|
 D|---------------------------------------|
 A|---------------------------------------|
 E|---------------------------------------|

MELODY THAT STARTS AT 00:27
 
 e|---4--7--4--7--4--7--9--9--9--9--9--9---|
 B|----------------------------------------|
 G|----------------------------------------|
 D|----------------------------------------|
 A|----------------------------------------|
 E|----------------------------------------|

[G#m]everybody's here with[C#m] me
we got no camera to see
don't think i'm all in this world
the camera won't let me go
and the verdict doesn't love our soul
the digital won't let me go
[Amaj]yeah yeah yeah, i'll pay,
[Amaj]when tom[Bmaj]orrow, tomorrow comes today
[G#m] [C#m] [G#m] [C#m]  
 
 e|---4--7--4--7--4--7--9--4----4--7--4--7--4--7--9~~~4---|
 B|-------------------------------------------------------|
 G|-------------------------------------------------------|
 D|-------------------------------------------------------|
 A|-------------------------------------------------------|
 E|-------------------------------------------------------|

[G#m] [C#m] [G#m] [C#m]  
 
 e|---0--2--0--2--0--2/4--0----0--2--0--2--0--2--0------|
 B|-------------------------------------------------2---|
 G|-----------------------------------------------------|
 D|-----------------------------------------------------|
 A|-----------------------------------------------------|
 E|-----------------------------------------------------|

[G#m]stereo i want it [C#m]on
it's taken me far too long
don't think i'm all in this world
i don't think i'll be here too long
i don't think i'll be here too long
i don't think i'll be here too long
[Amaj]yeah yeah yeah, i'll pay
[Amaj]when tom[Bmaj]orrow, tomorrow comes today
[G#m] [C#m] [G#m] [C#m]  
 
 e|---4--7--4--7--4--7--9--4----4--7--4--7--4--7--9~~~4---|
 B|-------------------------------------------------------|
 G|-------------------------------------------------------|
 D|-------------------------------------------------------|
 A|-------------------------------------------------------|
 E|-------------------------------------------------------|

[G#m] [C#m] [G#m] [C#m]  
 
 e|---0--2--0--2--0--2/4--0----0--2--0--2--0--2--0------|
 B|-------------------------------------------------2---|
 G|-----------------------------------------------------|
 D|-----------------------------------------------------|
 A|-----------------------------------------------------|
 E|-----------------------------------------------------|

[C#m]la-la la-la la-la laa... x3

Important: The song above is NOT stored on the Chordie server. The original song is hosted at www.azchords.com. Chordie works as a search engine and provides on-the-fly formatting. Chordie does not index songs against artists'/composers' will. To remove this song please click here.

Text color:
Chord color:
Chord grids: 
Font size:    
Page size: 

Amaj Bmaj C#m G#m
Rate #1 of 5 versions

Login - add to songbook

SHARE PAGE  




You need to log in to post comments