Guitar Tabs, Chords and Lyrics
Major upgrade!! After one year development the new version of Chordie is now online! Please give feedback.


Heaven Knows  The Grass Roots

With a song in m[C]y heart[F] [G] [C]
And a chance to be [F]yours forev[G]er[C]
I couldn't feel more secu[F]re[G] [C]
I know I couldn't feel [F]any [G]better
(CHORUS)
[C]Oh [G]Lord [F]heaven [C]knows
[C]How much I [G]love you and [F]how much it [C]shows
[Am]Oh L[D]ord [F]heaven, heaven [C]knows
(KEYBOARD ARR. FOR GUITAR)
 
 -------------------------|
 -1-----------------------|
 ----3--0-----------------|
 ----------3--1-3---------|
 -------------------------|
 -------------------------|

[C]Every time we're tog[F]ether[G] [C]
Your love is moving like l[F]ightning through m[G]e[C]
It's such a beautiful [F]feeling[G] [C]
Never hearing goodby[F]e said [G]to me
(CHORUS)
[C]Oh [G]Lord [F]heaven [C]knows
[C]How much I [G]love you and [F]how much it [C]shows
[Am]Oh L[D]ord [F]heaven, heaven [C]knows
(KEYBOARD ARR. FOR GUITAR)
 
 -------------------------|
 -1-----------------------|
 ----3--0-----------------|
 ----------3--1-3---------|
 -------------------------|
 -------------------------|

(BRIDGE)
[Am]I was living wit[D]hout you[G]
Trying to make it [E]alone[Am]
But there's something [D]about you[G]
Now your heart is my [E]home
[C]With a song in my h[F]eart[G] [C]
And a chance to be [F]yours forev[G]er[C]
I couldn't feel more secu[F]re[G] [C]
I know I couldn't feel [F]any [G]better
(CHORUS)
[C]Oh [G]Lord [F]heaven [C]knows
[C]How much I [G]love you and [F]how much it [C]shows
[Am]Oh L[D]ord [F]heaven, heaven [C]knows
(KEYBOARD ARR. FOR GUITAR)
 
 -------------------------|-------------------------|
 -1-----------------------|-1-----------------------|
 ----3--0-----------------|----3--0-----------------|
 ----------3--1-3---------|----------3--1-3---------|
 -------------------------|-------------------------|
 -------------------------|-------------------------|

(CHORUS 2x)
[C]Oh [G]Lord [F]heaven [C]knows
[C]How much I [G]love you and [F]how much it [C]shows
[Am]Oh L[D]ord [F]heaven, heaven [C]knows

Important: The song above is NOT stored on the Chordie server. The original song is hosted at www.azchords.com. Chordie works as a search engine and provides on-the-fly formatting. Chordie does not index songs against artists'/composers' will. To remove this song please click here.

Text color:
Chord color:
Chord grids: 
Font size:    
Page size: 

Am C D E F G
Rate #1 of 1 versions

Jango Player

Login - add to songbook

SHARE PAGE  




You need to log in to post comments