Guitar Tabs, Chords and Lyrics
Major upgrade!! After one year development the new version of Chordie is now online! Please give feedback.


Easy to Love You  Grateful Dead

Intro:
 
 E------------------------------------
 B------------------------------------
 G------------------------------------
 D-7^9-9----7^9--12-----7^9-9--3--5---
 A-5^7-7----5^7--10-----5^7-7--1--3---
 E------------------------------------

First: D^E E, D^E G, D^E E, G A
then: D^E E, D^E G, D^E E, Ab C
(Verse 1)
[C]Good, good [G]morning, [D]so good to [Em]see you
[C]You weren't [G]just a [D]dream of mine[Dsus4] [D]
[C]Real as a [G]raven, [D]real as [Em]thunder
[C]Real [G]as the [D]sun sh[Dsus4]ining[D]
But [C]still so [G]very [C]hard to find[G]
[C]I can't [G]imagin[Bm]e what's behi[C]nd t[D]hose sleep[G]y eyes
(Verse 2)
[C]Little stra[G]nger, don[D]'t try to h[Em]ide now
[C]You look so [G]young a[D]nd you're afrai[Dsus4]d[D]
[C]There is no[G] danger b[D]ut from the[Em] devil
[C]And he may w[G]ant you[D] but I'm in his[Dsus4] way[D]
[C]You don't k[G]now how e[D]asy it is[Em]
[C]You don'[G]t know[Bm] how easy it [C]is t[D]o love you[G]
(Bridge)
oooh oooh oooh oooh oooh oooh
 
 E------------------------------------
 B------------------------------------
 G------------------------------------
 D-------4--5-7--5--------------------
 A-5--7-5----------7------------------
 E------------------------------------

(Verse 3)
[C]And come th[G]e moonris[D]e, when the[Em] dew falls
[C]Don't be the[G] sun th[D]at fades away[Dsus4] [D]
[C]Don't leave[G] me darkn[D]ess, she is[Em] no lover
[C]She h[G]ides th[D]e day[Dsus4] [D]
[C]You don't k[G]now how e[D]asy it is[Em]
[C]You don'[G]t know[Bm] how easy it [C]is t[D]o love you[G]
(Verse 1)
[C]Good, good [G]morning, [D]so good to [Em]see you
[C]You weren't [G]just a [D]dream of mine[Dsus4] [D]
[C]Real as a [G]raven, [D]real as [Em]thunder
[C]Real [G]as the [D]sun sh[Dsus4]ining[D]
But [C]still so [G]very [C]hard to find[G]
[C]I can't [G]imagin[Bm]e what's behi[C]nd t[D]hose sleep[G]y eyes
[C]You don't k[G]now how e[D]asy it is[Em]
[C]You don'[G]t know[Bm] how easy it [C]is t[D]o love you[G]
[C]You don't k[G]now how e[D]asy it is[Em]
[C]You don'[G]t know[Bm] how easy it [C]is t[D]o love you[G]
[C]You don't k[G]now how e[D]asy it is[Em]
[C]You don'[G]t know[Bm] how easy it [C]is t[D]o love you[G]
oooh oooh oooh oooh oooh oooh
 
 E------------------------------------
 B------------------------------------
 G------------------------------------
 D-------4--5-7--5--------------------
 A-5--7-5----------7------------------
 E------------------------------------


Important: The song above is NOT stored on the Chordie server. The original song is hosted at www.azchords.com. Chordie works as a search engine and provides on-the-fly formatting. Chordie does not index songs against artists'/composers' will. To remove this song please click here.

Text color:
Chord color:
Chord grids: 
Font size:    
Page size: 

Bm C D Dsus4 Em G
Rate #1 of 1 versions

Login - add to songbook

SHARE PAGE  



You need to log in to post comments