Guitar Tabs, Chords and Lyrics
Server problems seems to be fixed. Chordie has been experiencing problems with songs disappearing. These issues now seems to be fixed, but still verifying the fix. If you find anything strange, please email admin@chordie.com.


Your Rocky Spine  Great Lake Swimmers

<i></i>Great Lake Swimmers
"Your Rocky Spine"
Standard Tuning
Capo 5th fret
[Intro/Outro] 
[Dm] [C]  
 
 E||-----1-1-----1-1-----1-1-------|-----0---0-0-0---------------|
 A||-----3-3-----3-3-3---3-3-1h3-1-|-----1---1-1-1---------------|
 D||-----2-2-0h2-2-2-----2-2-------|-----0---0-0-0---------------|
 G||-0-----------------------------|-2---2---2-2-2-2h3---3-3p2p0-|
 B||-------------------------------|-----------------------------|
 e||-------------------------------|-----------------------------|

[G7] [Fsus4]  
 
 E|-----1---1-1-1-----1---1-1-1-|-----1---1-1-1-----1-1-----1-1-||
 A|-----0---0-0-0-----0---0-0-0-|-----1---1-1-1-----1-1-----1-1-||
 D|-----0---0-0-0-----0---0-0-0-|-----3---3-3-3-----3-3-3---3-3-||
 G|-----0---0-0-0-----0---0-0-0-|-----3---3-3-3-----3-3-----3-3-||
 B|-0h2-----------0h2-----------|-1-------------1---------------||
 e|-----------------------------|-------------------------------||

[Verse] 
[Dm] [C]  
 
 E||-----1-1-----1-1-----1-1-----1-1-|-----0---0-0-0-----0---0-0-0-|
 A||-----3-3-----3-3-----3-3-----3-3-|-----1---1-1-1-----1---1-1-1-|
 D||-----2-2-2---2-2-----2-2-2---2-2-|-----0---0-0-0-0---0---0-0-0-|
 G||-0---------------0---------------|-----2---2-2-2-----2---2-2-2-|
 B||---------------------------------|-3---3---3-3-3---------------|
 e||---------------------------------|-----------------------------|

[G7] [Fsus4]  
 
 E|-----1---1-1-1-----1---1-1-1-|-----1---1-1-1-----1---1-1-1-||
 A|-----0---0-0-0-----0---0-0-0-|-----1---1-1-1-----1---1-1-1-||
 D|-----0---0-0-0-----0---0-0-0-|-----3---3-3-3-3---3---3-3-3-||
 G|-----0---0-0-0-----0---0-0-0-|-----3---3-3-3-----3---3-3-3-||
 B|---------------2-------------|-1---------------------------||
 e|-3---------------------------|-----------------------------||

[Bridge] 
[C] [Fsus4]  
 
 E||-----0-0-----0-0-----0-0-----0-0-|-----1-1-----1-1-----1-1-----1-1-||
 A||-----1-1-----1-1-----1-1-----1-1-|-----1-1-----1-1-----1-1-----1-1-||
 D||-----0-0-0---0-0-----0-0-0---0-0-|-----3-3-3---3-3-----3-3-3---3-3-||
 G||-----2-2-----2-2-----2-2-----2-2-|-----3-3-----3-3-----3-3-----3-3-||
 B||-3---------------3---------------|-1---------------1---------------||
 e||---------------------------------|---------------------------------||

[Cborus] 
[F] [C]  
 
 E||-----1-1-----1-1-----1-1-----1-1-|-----0-0-----0-0-----0-0-----0-0-|
 A||-----1-1-----1-1-----1-1-----1-1-|-----1-1-----1-1-----1-1-----1-1-|
 D||-----2-2-----2-2-----2-2-----2-2-|-----0-0-0---0-0-----0-0-0---0-0-|
 G||-----3-3-3---3-3-----3-3-3---3-3-|-----2-2-----2-2-----2-2-----2-2-|
 B||-3---------------3---------------|-3---------------3---------------|
 e||---------------------------------|---------------------------------|

[G7] [Fsus4]  
 
 E|-----1-1-----1-1-----1-1-----1-1-|-----1-1-----1-1-----1-1-----1-1-||
 A|-----0-0-----0-0-----0-0-----0-0-|-----1-1-----1-1-----1-1-----1-1-||
 D|-----0-0-----0-0-----0-0-----0-0-|-----3-3-3---3-3-----3-3-3---3-3-||
 G|-----0-0-----0-0-----0-0-----0-0-|-----3-3-----3-3-----3-3-----3-3-||
 B|---------2---------------2-------|-1---------------1---------------||
 e|-3---------------3---------------|---------------------------------||

[Intro/Outro]x2
[Verse]:
I was [Dm]lost in the [C]Lakes
And the [G7]shapes that your [Fsus4]body makes
That your [Dm]body makes, that your [C]body makes
That your [G7]body makes[Fsus4]
[Bridge]x2
[Verse]:
And the [Dm]mountains said I could [C]find you here
They [G7]whispered the snow and the [Fsus4]leaves in my ear
I [Dm]traced my finger a[C]long your trails
Your [G7]body was the map, I was [Fsus4]lost in it
[Cborus]x2
[F]Floating over your [C]rocky spine
The [G7]glaciers made you, and [Fsus4]now you're mine
[F]Floating over your [C]rocky spine
The [G7]glaciers made you, and [Fsus4]now you're mine
[Intro/Outro]x2
[Verse]:
I was [Dm]moving across your [C]frozen veneer
The [G7]sky was dark but [Fsus4]you were clear
[Dm]Could you feel my [C]footsteps?
And would you [G7]shatter, would you shatter, would [Fsus4]you?
And with your soft fingers between my claws
Like purity against resolve
I could [Dm]tell then and there we were [C]formed from the clay
And [G7]came from the rocks for the [Fsus4]earth to display
They [Dm]told me to be [C]careful up there
Where the [G7]wind blows a venomous [Fsus4]rage through your hair
They [Dm]told me to be [C]careful up there
Where the [G7]wind rages through your [Fsus4]hair
[Intro/Outro]x2
************************************
[README]:
I won't pretend this follows the song verbatim, but it can serve as a platform
to play around with. The intro/outro attempts to capture the flair of the banjo
while staying true to the role of rhythm guitar. While on the topic, I'm not
sure that the Fsus4 [113311] I have listed is correct; rather, the chord may
actually be A#Mag7/F [132311].
Please comment or e-mail me if you have suggestions to improve this tab.
************************************
| / slide up
| \ slide down
| h hammer-on
| p pull-off
| ~ vibrato
| + harmonic
| x Mute note
| b Bend
| pb Pre-bend
| br Bend release
| pbr Pre-bend release
| brb Bend release bend
************************************

Important: The song above is NOT stored on the Chordie server. The original song is hosted at www.azchords.com. Chordie works as a search engine and provides on-the-fly formatting. Chordie does not index songs against artists'/composers' will. To remove this song please click here.

Text color:
Chord color:
Chord grids: 
Font size:    
Page size: 

C Dm F Fsus4 G7
Rate #1 of 8 versions

Login - add to songbook

SHARE PAGE  



You need to log in to post comments