Guitar Tabs, Chords and Lyrics
Major upgrade!! After one year development the new version of Chordie is now online! Please give feedback.


Chump  Green Day

K this is Chump, by Green Day, hope you like it.
Tune down 1/2 a step
Fig 1:
[B] [A] [E] [B]  
 
 |-------------------------------------0------0---0---------|
 |--4-----4-----2----------------------0------0---0---4--4--|
 |--4-----4-----2--------1--(1)---------------1---1---4--4--|
 |--4-----4-----2--------2--(2)--2--2---------2---2---4--4--|
 |--2-----2-----0--------2--(2)--2--2---------2---2---2--2--|
 |------------------2p0--0--(0)--0--0---------0---0---------|

Do that 3 times.
Fig 2:
[B] [A] [E] [F#]  
 
 |--------------------------------------0-----0---0---2--2--|
 |--4-----4-----2-----------------------0-----0---0---2--2--|
 |--4-----4-----2---------1--(1)--------------1---1---3--3--|
 |--4-----4-----2---------2--(2)--2--2--------2---2---4--4--|
 |--2-----2-----0---------2--(2)--2--2--------2---2---4--4--|
 |------------------2p0---0--(0)--0--0--------0---0---2--2--|

you're the rea-son for- my mis-er - y
 
 |--2--2-----2--2--2--2----2--2----2--2--2--0--|
 |--2--2-----2--2--2--2----2--2----2--2--2--0--|
 |--3--3-----3--3--3--3----3--3----3--3--3--0--|
 |--4--4-----4--4--4--4----4--4----4--4--4--0--|
 |--4--4-----4--4--4--4----4--4----4--4--4--0--|
 |--2--2-----2--2--2--2----2--2----2--2--2--0--|

Then it goes:
Fig 1. x2
Fig 2. x1
then: (Fig 3)
[A] [E] [B]  
 
 |---------0----0----0--------------------------------|
 |-2----2--0----0----0----4----4--4--4--4----4--4--4--|
 |-2----2--1----1----1----4----4--4--4--4----4--4--4--|
 |-2----2--2----2----2----4----4--4--4--4----4--4--4--|
 |-0----0--2----2----2----2----2--2--2--2----2--2--2--|
 |---------0----0----0--------------------------------|

do that four times.
then fig 1 x4
then the first half of fig 2
then there is the bass solo.
and then after tat it goes:
[F#] [F#] [E] [F#] [E]  
 
 |---------------| hold |------------------------------------------|
 |---------------| this |------------------------------------------|
 |--11--11--11---| for |--11--11--11---9--9--9--11-11-11--9--9--9-|
 |--11--11--11---| a x4 |--11--11--11---9--9--9--11-11-11--9--9--9-|
 |---9---9---9---| wee |---9---9---9---7--7--7---9--9--9--7--7--7-|
 |---------------| while |------------------------------------------|

[E] [F#]  
 
 |-----------|
 |-----------|
 |--9\--3-3--|
 |--9\--4-4--|
 |--7\--4-4--|
 |------2-2--|

Thats All Bye.

Important: The song above is NOT stored on the Chordie server. The original song is hosted at www.azchords.com. Chordie works as a search engine and provides on-the-fly formatting. Chordie does not index songs against artists'/composers' will. To remove this song please click here.

Text color:
Chord color:
Chord grids: 
Font size:    
Page size: 

A B E F#
Rate #1 of 11 versions

Jango Player

Login - add to songbook

SHARE PAGE  




You need to log in to post comments