Guitar Tabs, Chords and Lyrics
Update 25:10. 13:00. Site is back up running again. Songbooks are recovered. Woring on getting search back up..


Extraordinary Girl  Green Day

Extraordinary girl - Green day
this is a good song from the american idiot album.
i've had a go and this is what i can fink of (sorry about the timing, you might have to
that out your self).
intro (after drums up to 0:34)
repeat x2
 
 1------------------------3----------- --------------------------------|
 2--5(b)----3--5--6(b)-------5--5(b)-- ---5(b)--5-5---3(b)--3-3---2----|(b)
 3------------------------------------ --------------------------------|
 4------------------------------------ --------------------------------|
 5------------------------------------ --------------------------------|
 6------------------------------------ --------------------------------|

[A] [Dm] [A] [Dm]  
 
 1--0-----1----0----1----|
 2--2-----3----2----3----|
 3--2-----2----2----2----|
 4--2-----0----2----0----|
 5--0----------0---------|
 6-----------------------|

verse
S[A]he‚??s an ext[Dm]raordinary [A]girl
In an or[Dm]dinary wo[A]rld
And she c[Gm]an‚??t seem to get[A] away
[A]He lacks the c[Dm]ourage in his m[A]ind
Like a c[Dm]hild left be[A]hind
Like a [Gm]pet left in the r[A]ain
chorus
[F#]She‚??s all a[E]lone again
[D]Wiping the tears from her e[E]yes
[F#]Some days he fe[E]els like dying
[D]She gets so sick of crying[E]
this is the lead part for the chorus
 
 1-----------------------------------------------------------|
 2-----------------------------------------------------------|
 3-----------------------------------------------------------|
 4-----------------------------------------------------------|
 5---9----7----5----7----9----7----5----7----5----7----5---5-|
 6-----------------------------------------------------------|

VERSE :
[A]She sees the [Dm]mirror of her[A]self
An i[Dm]mage she wants to t[A]ell
To an[G5]yone willing to bu[A]y
[A]He steals the i[Dm]mage in her k[A]iss
[Dm] [A]  
[G5] [A]  
[F#]She‚??s all alone [E]again
[D]Wiping the tears from her e[E]yes
[F#] Some days he[E] feels like dying
[D]Some days its n[E]ot worth trying
[D] Now that they [E]both are finding
[Dm]She gets so sick of crying
[A]She‚??s an ext[Dm]raordinary[A] girl
[A]She‚??s an ext[Dm]raordinary[A] girl
[A]She‚??s an ext[Dm]raordinary[A] girl

Important: The song above is NOT stored on the Chordie server. The original song is hosted at www.azchords.com. Chordie works as a search engine and provides on-the-fly formatting. Chordie does not index songs against artists'/composers' will. To remove this song please click here.

Text color:
Chord color:
Chord grids: 
Font size:    
Page size: 

A D Dm E F# G5 Gm
Rate #1 of 13 versions

Login - add to songbook

SHARE PAGE  




You need to log in to post comments