Guitar Tabs, Chords and Lyrics
Server problems seems to be fixed. Chordie has been experiencing problems with songs disappearing. These issues now seems to be fixed, but still verifying the fix. If you find anything strange, please email admin@chordie.com.


Minority  Green Day

[Intro] (the way I play it)
[C] [G] [Fmaj7] [C]  
 
 e|-----------------------------0---------------|
 B|-------1----------3------1------1-------1----|
 G|---0------0---0------0-----2--------0------0-|
 D|-----2----------0------3--------------2------|
 A|-3----------2---------------------3----------|
 E|---------------------------------------------|

C G Fmaj7 C <-- strum c twice
 
 e|-------------------------------0--0-|
 B|-------1----------3----1--1--1-1--1-|
 G|---0------0---0-----0--2--0--0-0--0-|
 D|-----2----------0------3--2--0-2--2-|
 A|-3----------2------------------3--3-|
 E|------------------------------------|

[Cborus] 
*[C] I want[G] to be [F]the min[C]ority
I[C] don't [G]need yo[F]ur auth[C]ority
D[C]own wit[G]h the m[F]oral ma[G]jority
'[C]Cause I[G] want t[F]o be th[C]e minority
[Verse] 
[C]I pledge a[G]llegiance to[F] the under[G]world
[C]One nation[G] under dog t[F]here of wh[C]ich I stand alone
[C]A face in th[G]e crowd unsung[F], against the [G]mold
[C]Without a doubt[G], singled out,[F] the only way[C] I know
[Cborus] 
*[C] I want[G] to be [F]the min[C]ority
I[C] don't [G]need yo[F]ur auth[C]ority
D[C]own wit[G]h the m[F]oral ma[G]jority
'[C]Cause I[G] want t[F]o be th[C]e minority
[Bridge] 
[Am]Steppe[E]d out o[F]f the l[C]ine
[Am]Like a s[E]heep runs[F] from the[G] herd
[Am]Marchi[E]ng out [F]of ti[C]me
[Am]To my own bea[F]t now The onl[G]y way I know
[Verse] 
[C]** One light[G], one mind, fl[F]ashing in th[G]e dark
[C]Blinded by t[G]he silence of [F]a thousand b[C]roken hearts
[C]For crying o[G]ut loud, she s[F]creamed unto[G] me
[C]A free for all[G], f**k them all,[F] you are your [C]own sight
[Cborus] 
*[C] I want[G] to be [F]the min[C]ority
I[C] don't [G]need yo[F]ur auth[C]ority
D[C]own wit[G]h the m[F]oral ma[G]jority
'[C]Cause I[G] want t[F]o be th[C]e minority
[Am] [E] [F] [C]  
[Am] [E] [F] [C]  
[Am] [E] [F] [C]  
[Am] [F] [G]  
[C] [G] [F] [C]  
[C] [G] [F] [G]  
[Verse] 
[C]** One light[G], one mind, fl[F]ashing in th[C]e dark
[C]Blinded by t[G]he silence of [F]a thousand b[G]roken hearts
[C]For crying o[G]ut loud, she s[F]creamed unto[C] me
[C]A free for all[G], f**k them all,[F] you are your [C]own sight
[Cborus] 
*[C] I want[G] to be [F]the min[C]ority
I[C] don't [G]need yo[F]ur auth[C]ority
D[C]own wit[G]h the m[F]oral ma[G]jority
'[C]Cause I[G] want t[F]o be th[C]e minority (x5)
Then end with the [intro]
[C] [G] [Fmaj7] [C]  
 
 e|-----------------------------0---------------|
 B|-------1----------3------1------1-------1----|
 G|---0------0---0------0-----2--------0------0-|
 D|-----2----------0------3--------------2------|
 A|-3----------2---------------------3----------|
 E|---------------------------------------------|

C G Fmaj7 C <-- strum c just once
 
 e|-------------------------------0--|
 B|-------1----------3----1--1--1-1--|
 G|---0------0---0-----0--2--0--0-0--|
 D|-----2----------0------3--2--0-2--|
 A|-3----------2------------------3--|
 E|----------------------------------|


Important: The song above is NOT stored on the Chordie server. The original song is hosted at www.azchords.com. Chordie works as a search engine and provides on-the-fly formatting. Chordie does not index songs against artists'/composers' will. To remove this song please click here.

Text color:
Chord color:
Chord grids: 
Font size:    
Page size: 

Am C E F Fmaj7 G
Rate #1 of 10 versions

Jango Player

Login - add to songbook

SHARE PAGE  




You need to log in to post comments