Guitar Tabs, Chords and Lyrics
Server problems seems to be fixed. Chordie has been experiencing problems with songs disappearing. These issues now seems to be fixed, but still verifying the fix. If you find anything strange, please email admin@chordie.com.


Ordinary World  Green Day

Intro/Verse]
[C] [Em7] [Am] [G]  
 
 e|------0----------0-----------------------|--------------------------------------------|
 B|----1-1--------1-1---------3--------3----|-------1------1h3-----0-------0-------------|
 G|----0----------0---------0--------0------|-----2--------2-------0-------0-----0---0---|
 D|----2----------2---------2--------2------|-----2--------2-------0-------0-------0-----|
 A|--3----------3---------2--------2--------|---0----------0-------2---------------------|
 E|-----------------------------------------|----------------------3---3-----------------|

[F] [C] [G]  
 
 e|-----------------------------------------|--------------------------------------------|
 B|--------0h1---1p0------------0h1---1p0---|-----1----------------3---------------------|
 G|-----2--2-----2-----------2--2-----2-----|-----0-------0--------0---------------------|
 D|-----3--------3-----------3--------3-----|-----2---2h3----0-----0---------------------|
 A|-----3--------3-----------3--------3-----|--3----------------------2h3---(0)----------|
 E|--1---------------1----1-----------------|-------------------3------------------------|

Repeat x3
[Cborus] 
[Am] [G] [F]  
 
 e|---------------------------------------|---------------------------------------|
 B|------1--------1---------1-------1-0---|------1p0------1p0------1p0------1p0---|
 G|----2-2------2-2-------2-2-------0-0---|------2--------2--------2--------2-----|
 D|----2--------2---------2---------0-----|------3--------3--------3--------3-----|
 A|--0--------0---------0-----------------|------3--------3--------3--------3-----|
 E|-------------------------------3-------|--1---------1--------1---------1-------|

[Am] [G] [F]  
 
 e|---------------------------------------|---------------------------------------|
 B|------1--------1---------1-------1-0---|---------------1-----------------------|
 G|----2-2------2-2-------2-2-------0-0---|---------------2-----------------------|
 D|----2--------2---------2---------0-----|---------------3-----------------------|
 A|--0--------0---------0-----------------|---------------3-----------------------|
 E|-------------------------------3-------|---------------1-----------------------|

[Verse] 
[C] [Em7] [Am] [G]  
 
 e|------0----------0-----------------------|--------------------------------------------|
 B|----1-1--------1-1---------3--------3----|-------1------1h3-----0-------0-------------|
 G|----0----------0---------0--------0------|-----2--------2-------0-------0-----0---0---|
 D|----2----------2---------2--------2------|-----2--------2-------0-------0-------0-----|
 A|--3----------3---------2--------2--------|---0----------0-------2---------------------|
 E|-----------------------------------------|----------------------3---3-----------------|

[F] [C] [G]  
 
 e|-----------------------------------------|--------------------------------------------|
 B|--------0h1---1p0------------0h1---1p0---|-----1----------------3---------------------|
 G|-----2--2-----2-----------2--2-----2-----|-----0-------0--------0---------------------|
 D|-----3--------3-----------3--------3-----|-----2---2h3----0-----0---------------------|
 A|-----3--------3-----------3--------3-----|--3----------------------2h3---(0)----------|
 E|--1---------------1----1-----------------|-------------------3------------------------|

Repeat x3
[Cborus] 
[Am] [G] [F]  
 
 e|---------------------------------------|---------------------------------------|
 B|------1--------1---------1-------1-0---|------1p0------1p0------1p0------1p0---|
 G|----2-2------2-2-------2-2-------0-0---|------2--------2--------2--------2-----|
 D|----2--------2---------2---------0-----|------3--------3--------3--------3-----|
 A|--0--------0---------0-----------------|------3--------3--------3--------3-----|
 E|-------------------------------3-------|--1---------1--------1---------1-------|

[Am] [G] [F]  
 
 e|---------------------------------------|---------------------------------------|
 B|------1--------1---------1-------1-0---|---------------1-----------------------|
 G|----2-2------2-2-------2-2-------0-0---|---------------2-----------------------|
 D|----2--------2---------2---------0-----|---------------3-----------------------|
 A|--0--------0---------0-----------------|---------------3-----------------------|
 E|-------------------------------3-------|---------------1-----------------------|

[Verse] 
[C] [Em7] [Am] [G]  
 
 e|------0----------0-----------------------|--------------------------------------------|
 B|----1-1--------1-1---------3--------3----|-------1------1h3-----0-------0-------------|
 G|----0----------0---------0--------0------|-----2--------2-------0-------0-----0---0---|
 D|----2----------2---------2--------2------|-----2--------2-------0-------0-------0-----|
 A|--3----------3---------2--------2--------|---0----------0-------2---------------------|
 E|-----------------------------------------|----------------------3---3-----------------|

[F] [C] [G]  
 
 e|-----------------------------------------|--------------------------------------------|
 B|--------0h1---1p0------------0h1---1p0---|-----1----------------3---------------------|
 G|-----2--2-----2-----------2--2-----2-----|-----0-------0--------0---------------------|
 D|-----3--------3-----------3--------3-----|-----2---2h3----0-----0---------------------|
 A|-----3--------3-----------3--------3-----|--3----------------------2h3---(0)----------|
 E|--1---------------1----1-----------------|-------------------3------------------------|

Repeat x4
[Cborus] 
[Am] [G] [F]  
 
 e|---------------------------------------|---------------------------------------|
 B|------1--------1---------1-------1-0---|------1p0------1p0------1p0------1p0---|
 G|----2-2------2-2-------2-2-------0-0---|------2--------2--------2--------2-----|
 D|----2--------2---------2---------0-----|------3--------3--------3--------3-----|
 A|--0--------0---------0-----------------|------3--------3--------3--------3-----|
 E|-------------------------------3-------|--1---------1--------1---------1-------|

[Am] [G] [F]  
 
 e|---------------------------------------|---------------------------------------|
 B|------1--------1---------1-------1-0---|---------------1-----------------------|
 G|----2-2------2-2-------2-2-------0-0---|---------------2-----------------------|
 D|----2--------2---------2---------0-----|---------------3-----------------------|
 A|--0--------0---------0-----------------|---------------3-----------------------|
 E|-------------------------------3-------|---------------1-----------------------|

[Verse] 
[C] [Em7] [Am] [G]  
 
 e|------0----------0-----------------------|--------------------------------------------|
 B|----1-1--------1-1---------3--------3----|-------1------1h3-----0-------0-------------|
 G|----0----------0---------0--------0------|-----2--------2-------0-------0-----0---0---|
 D|----2----------2---------2--------2------|-----2--------2-------0-------0-------0-----|
 A|--3----------3---------2--------2--------|---0----------0-------2---------------------|
 E|-----------------------------------------|----------------------3---3-----------------|

[F] [C] [G]  
 
 e|-----------------------------------------|--------------------------------------------|
 B|--------0h1---1p0------------0h1---1p0---|-----1----------------3---------------------|
 G|-----2--2-----2-----------2--2-----2-----|-----0-------0--------0---------------------|
 D|-----3--------3-----------3--------3-----|-----2---2h3----0-----0---------------------|
 A|-----3--------3-----------3--------3-----|--3----------------------2h3---(0)----------|
 E|--1---------------1----1-----------------|-------------------3------------------------|

Repeat x2
[Outro] 
[C] [Em7] [Am] [G]  
 
 e|------0----------0-----------------------|--------------------------------------------|
 B|----1-1--------1-1---------3--------3----|-------1------1h3-----0-------0-------------|
 G|----0----------0---------0--------0------|-----2--------2-------0-------0-----0---0---|
 D|----2----------2---------2--------2------|-----2--------2-------0-------0-------0-----|
 A|--3----------3---------2--------2--------|---0----------0-------2---------------------|
 E|-----------------------------------------|----------------------3---3-----------------|

[F] [C] [G] [C]  
 
 e|-----------------------------------------|------------------------------------|----0----|
 B|--------0h1---1p0------------0h1---1p0---|-----1----------------3-------------|----1----|
 G|-----2--2-----2-----------2--2-----2-----|-----0-------0--------0-------------|----0----|
 D|-----3--------3-----------3--------3-----|-----2---2h3----0-----0-------------|----2----|
 A|-----3--------3-----------3--------3-----|--3----------------------2h3---(0)--|----3----|
 E|--1---------------1----1-----------------|-------------------3----------------|---------| 


Important: The song above is NOT stored on the Chordie server. The original song is hosted at www.azchords.com. Chordie works as a search engine and provides on-the-fly formatting. Chordie does not index songs against artists'/composers' will. To remove this song please click here.

Text color:
Chord color:
Chord grids: 
Font size:    
Page size: 

Am C Em7 F G
Rate #1 of 3 versions

Jango Player

Login - add to songbook

SHARE PAGE  




You need to log in to post comments