Guitar Tabs, Chords and Lyrics
Server problems seems to be fixed. Chordie has been experiencing problems with songs disappearing. These issues now seems to be fixed, but still verifying the fix. If you find anything strange, please email admin@chordie.com.


Somewhere Now  Green Day

[INTRO] 
 
 e|----0-------0--------0------------------------0-------0--------0----------------------|
 B|-----3--------3-------3------3---2h3-----------3--------3-------3------3-3--2-2-------|
 G|---2---2---2--------2----------------2-------2---2---2--------2--------2-2--2-2--2-2--|
 D|--0-------------------------2---------------0-------------------------------2-2--2-2--|
 A|----------3-----3-2-----2-0-------------------------3-----3-2-----2-0-----------------|
 E|--------------------------------------------------------------------------------------|

[VERSE 1] 
I'm running late to somewhere now, that I don't want to be
 
 e|---0-------0--------0------------------|
 B|----3--------3-------3------3---2h3----|
 G|--2---2---2--------2----------------2--|
 D|-0-------------------------2-----------|
 A|---------3-----3-2-----2-0-------------|
 E|---------------------------------------|

Where the future and promises, ain't what it used to be
 
 e|----0-------0--------0----------------------|
 B|-----3--------3-------3------3-3--2-2-------|
 G|---2---2---2--------2--------2-2--2-2--2-2--|
 D|--0-------------------------------2-2--2-2--|
 A|----------3-----3-2-----2-0-----------------|
 E|--------------------------------------------|

I never wanted to compromise, or bargain with my soul
 
 e|---0-------0--------0------------------|
 B|----3--------3-------3------3---2h3----|
 G|--2---2---2--------2----------------2--|
 D|-0-------------------------2-----------|
 A|---------3-----3-2-----2-0-------------|
 E|---------------------------------------|

How did a life on the wild side, ever get so dull
 
 e|----0-------0--------------------------------|
 B|-----3--------3---------2-2-2-2-2-2-2-2-2-2--|
 G|---2---2---2------------2-2-2-2-2-2-2-2-2-2--|
 D|--0---------------------2-2-2-2-2-2-2-2-2-2--|
 A|----------3-----3----------------------------|
 E|---------------------------------------------|

[CBORUS] 
[A]All grown up a[G]nd medi[D]cated
[A]I'm high on Cell[G]ular[D] waves
[A]I put the riot [G]in [D]Patriot
And we [C]all die [G]in [A]threes
[VERSE 2] 
 
 e|----0-------0--------0----------------------|
 B|-----3--------3-------3------3-3--2-2-------|
 G|---2---2---2--------2--------2-2--2-2--2-2--|
 D|--0-------------------------------2-2--2-2--|
 A|----------3-----3-2-----2-0-----------------|
 E|--------------------------------------------|

I got a scene in the middle of the road, I'm gonna take my time
 
 e|---0-------0--------0------------------|
 B|----3--------3-------3------3---2h3----|
 G|--2---2---2--------2----------------2--|
 D|-0-------------------------2-----------|
 A|---------3-----3-2-----2-0-------------|
 E|---------------------------------------|

I shot online so I can bolt, at the speed of life
 
 e|----0-------0--------0----------------------|
 B|-----3--------3-------3------3-3--2-2-------|
 G|---2---2---2--------2--------2-2--2-2--2-2--|
 D|--0-------------------------------2-2--2-2--|
 A|----------3-----3-2-----2-0-----------------|
 E|--------------------------------------------|

I'm like a drum way up in the sky, I'm a shooting star
 
 e|---0-------0--------0------------------------0--------|
 B|----3--------3-------3------3---2h3--------3--3-------|
 G|--2---2---2--------2----------------2----2-----2------|
 D|-0-------------------------2-----------2--------2-----|
 A|---------3-----3-2-----2-0-------------------------3--|
 E|------------------------------------------------------|

There's a soldier that's freakin out, P.S. this is war
 
 e|----0-------0--------------------------------|
 B|-----3--------3---------2-2-2-2-2-2-2-2-2-2--|
 G|---2---2---2------------2-2-2-2-2-2-2-2-2-2--|
 D|--0---------------------2-2-2-2-2-2-2-2-2-2--|
 A|----------3-----3----------------------------|
 E|---------------------------------------------|

[CBORUS] 
[A]All grown up a[G]nd medi[D]cated
[A]I'm high on Cell[G]ular[D] waves
[A]I put the riot [G]in [D]Patriot
And we [C]all die [G]in [A]threes
[A]All we wan[G]t is[D] money and gun[G]s
[A]A new cata[G]stroph[D]e
[A]Here goes nothi[G]ng, when the[D]res nothing to lose
Its a [C]small price [G]we [D]pay
When [C]we all die [G]in [A]threes
[BRIDGE] 
[D]  
[C]Some[G]where now[D]
[C]Some[G]where now[D]
C G A G G G A (x2) D
Somewhere now
[C]Some[G]where now[D]
[C]Some[G]where now[D]
C G A G G G A (x4)
Somewhere now
D A G A (x4)
A G G G A (x2)
D A G A (x4)
A G G G A (x3)
[A]  
[OUTRO] 
[A]Hallelujah! I found my soul
[G]Under the sofa pillows
[A]Congratulations, I found myself
[G]Somewhere [D]now
[G]Somewhere [D]Now
[G]Somewhere [D]Now

Important: The song above is NOT stored on the Chordie server. The original song is hosted at www.azchords.com. Chordie works as a search engine and provides on-the-fly formatting. Chordie does not index songs against artists'/composers' will. To remove this song please click here.

Text color:
Chord color:
Chord grids: 
Font size:    
Page size: 

A C D G
Rate #1 of 2 versions

Jango Player

Login - add to songbook

SHARE PAGE  



You need to log in to post comments