Guitar Tabs, Chords and Lyrics
Server problems seems to be fixed. Chordie has been experiencing problems with songs disappearing. These issues now seems to be fixed, but still verifying the fix. If you find anything strange, please email admin@chordie.com.


What I Know  Grouplove

[Intro Book]:
Soft
 
 |-------10-8-----------------------------------10-8----------------------------------|
 |------------11-10--10-10-8/10-10-10----------------11-10--10-10-10/13~~-------------|
 |-10-10---------------------------------10-10----------------------------------------|
 |------------------------------------------------------------------------------------|
 |------------------------------------------------------------------------------------|
 |------------------------------------------------------------------------------------|

Heavy
 
 |-------10-8-----------------------------------10-8----------------------------------|
 |------------11-10--10-10-8/10-10-10----------------11-10--10-10-10/11~~--10~~~~~~v--|
 |-10-10---------------------------------10-10----------------------------------------|
 |------------------------------------------------------------------------------------|
 |------------------------------------------------------------------------------------|
 |------------------------------------------------------------------------------------|

[Verse]:
[F] I [Bb]give you t[Am]his, you g[Dm]ive it b[F]ack
I [Bb]tossed a c[Am]oin right o[Dm]n the tra[-]ck
[F]Is [Bb]this for r[Am]eal or i[Dm]s it whac[F]k?
I [Bb]hate the fee[Am]ling of [Dm]feeling trapped
[Pre-Cborus]: "Somethin' for nothing"
Gtr1
 
 |-------------------------------------------------------------------13~~-------------|
 |------------------------------------------------------------------------------------|
 |-7~~7/9~~9/10~~10/15~~\14~~~-----7-7/9~~9/10~~10/15~~\14~~~-15br-15--14~~~~---------|
 |------------------------------------------------------------------------------------|
 |------------------------------------------------------------------------------------|
 |------------------------------------------------------------------------------------|

Gtr2
 
 |------------------------------------------------------------------------------------|
 |------------------------------------------------------------------------------------|
 |------------------------------------------------------------------------------------|
 |------------------------------------------------------------------------------------|
 |-1-/7--8--3---1-/7--8--3----1-7--8--3---1-/7--8--3----------------------------------|
 |------------------------------------------------------------------------------------|

[Verse 2]:
[F] And it [Bb]doesn't m[Am]atter wh[Dm]ere I [F]live
Af[Bb]ter a wh[Am]ile I w[Dm]anna spl[-]it
[F]You s[Bb]pecial[Am]ise in tw[Dm]ice as n[F]ice
I [Bb]fall asle[Am]ep but [Dm]not at night
[Pre-Cborus] (Similar to first)
[Cborus]:
[F] What I [Bb]know
I [Am]march in [Dm]my own pa[F]rade
I don't [Bb]know
It's [Am]all just [Dm]utter [F]pain
I don't [Bb]care
I [Dm]plan out my es[Gm]cape
[F] I don't [Bb]know
What [Am]else [Gm]can I say?
[Intro Book] 
[Verse 3]:
[F] Yeah [Bb]less is m[Am]ore, I k[Dm]now the t[F]ale
But [Bb]what if it fe[Am]els like y[Dm]ou have doub[-]t?
[F]Could it [Bb]be in [Am]your head or [Dm]in your h[F]ome?
Ain't it [Bb]nice to kn[Am]ow you're [Dm]not alone?
[Pre-Cborus] (Similar to first) (More high F notes at the end)
[Cborus]:
[F] What I [Bb]know
I [Am]march in [Dm]my own pa[F]rade
I don't [Bb]know
It's [Am]all just [Dm]utter [F]pain
I don't [Bb]care
I [Dm]plan out my es[Gm]cape
[F] I don't [Bb]know
Oh, [Am]What else I can [Gm]take
[Bridge/Lead Brakes]:
[Bb] Oh Ange[Bbm]line, is this the [F]only way?
[Bb] Oh Ange[Bbm]line, I think you're [G]like[Bbm]ly to st[F]ay
[Bb] Oh Ange[Bbm]line, I'm not the [F]only one
[Bb] Los Ange[Bbm]les, you got that [G]hot [Bbm]burning s[F]un
Lead starting on "Likely to stay"
 
 |-----7--/-------13---/-------17----17-17---------------8---8-8-5-------8-------------|
 |---8---8/----14----14/----18----18-------18----------6---6-------6---6---6---6-------|
 |-7------/-15---------/-17-------------------17\\---5---------------5--------5--------|
 |---------------------------------------------------------------------------7---5-----|
 |---------------------------------------------------------------------------------8---|
 |-------------------------------------------------------------------------------------|
 |-----8---8---5--------7--/-------13---/-------17----17-------17-17-------------------|
 |---6---6---6---6----8---8/----14------/----18----18----18-18-18-18-------------------|
 |-5----------------7------/-15-------15/-17----------------17-17-17-------------------|
 |-------------------------------------------------------------------------------------|
 |-------------------------------------------------------------------------------------|
 |-------------------------------------------------------------------------------------|

Straight into [Intro Books]
Then a change in Hook:
 
 |------------------------------------------------/13-----------------------------------------------------|
 |--------------------------------------------------------------------------------------------------------|
 |-----10--9-7----------------------10--9-7----------------10--9-7----------------------10--9-7-----------|
 |-8-8---------10--10-10-10br~~-8-8---------10brb------8-8---------10--10-10-10br~~-8-8---------10brbr?---|
 |-----------------------------------------------?--------------------------------------------------------|
 |--------------------------------------------------------------------------------------------------------|

[Start of Last Cborus]: Utter Pain
 
 |----------------6--------5---------------------------6--------5~~~--------------------------------------|
 |-------6-------6--------5-------------------6-------6--------5~~----------------------------------------|
 |------5------7--------5------------7-------5------7--------5~~~-----------------------------------------|
 |----7------8--------7-------------7------7------8--------7~~--------------------------------------------|
 |--8-----------------------------8------8----------------------------------------------------------------|
 |-----------------------------10-------------------------------------------------------------------------|

[F] I don't [Bb]care
I [Dm]plan out my es[Gm]cape
[F] I don't [Bb]know
Oh, [Am]What else I can [Gm]take
[F] What I [Bb]know
I [Am]march in [Dm]my own pa[F]rade
I don't [Bb]know
It's [Am]all just [Dm]utter [F]pain
I don't [Bb]care
I [Dm]plan out my es[Gm]cape
[F] I don't [Bb]know
What [Am]else [Gm]can I [F]take
Lead Half way through Chorus
With some vibrato and fast picking and ..yeah
 
 |-------10-8------------------------------------------|
 |------------11-11tr---10tr---8tr---------------------|
 |-10-10-----------------------------------------------|
 |-----------------------------------------------------|
 |-----------------------------------------------------|
 |-----------------------------------------------------| 


Important: The song above is NOT stored on the Chordie server. The original song is hosted at www.azchords.com. Chordie works as a search engine and provides on-the-fly formatting. Chordie does not index songs against artists'/composers' will. To remove this song please click here.

Text color:
Chord color:
Chord grids: 
Font size:    
Page size: 

Am Bb Bbm Dm F G Gm
Rate #1 of 1 versions

Jango Player

Login - add to songbook

SHARE PAGE  



You need to log in to post comments