Guitar Tabs, Chords and Lyrics
Major upgrade!! After one year development the new version of Chordie is now online! Please give feedback.


Unbaited Vicar of Scorched Earth  Guided by Voices

[F6] [E7]  
 
 e|---------------------------------------------------------------------------|
 B|---------------------------------------------------------------------------|
 G|---------------------------------------------------------------------------|
 D|------0-----0---0-----0-----0---0-----0-----0---0-----0-----0---0----------|
 A|----3-----3---------3-----3---------3-----3---------3-----3----------------|
 E|--1-----1-----1---1-----1-----1---0-----0-----0---0-----0-----0------------| 

\
2x
[Csus2/G] [F6] [C7sus2/Bb] [/]  
 
 e|---------------------------------------------------------------------------|
 B|---------------------------------------------------------------------------|
 G|---------------------------------------------------------------------------|
 D|------0-----0---0-----0-----0---0-----0-----0---0-----0-----0---0----------|
 A|----3-----3---------3-----3---------3-----3---------3-----3----------------|
 E|--3-----3-----3---3-----3-----1---6-----6-----6---6-----6-----6------------|

[C5] [Bb6]  
 
 e|---------------------------------------------------------------------------|
 B|---------------------------------------------------------------------------|
 G|------0-----0---0-----0-----0---0-----0-----0---0-----0-----0---0----------|
 D|----5-----5---------5-----5---------3-----3---------3-----3----------------|
 A|--3-----3-----3---3-----3-----3---1-----1-----1---1-----1-----1------------|
 E|---------------------------------------------------------------------------|

[Dsus4]  
 
 e|---------------------------------------------------------------------------|
 B|---------------------------------------------------------------------------|
 G|------0-----0---0-----0-----0---0------------------------------------------|
 D|----7-----7---------7-----7------------------------------------------------|
 A|--5-----5-----5---5-----5-----5--------------------------------------------|
 E|---------------------------------------------------------------------------|

[C5] [Bb6] [Fadd9/A]  
 
 e|---------------------------------------------------------------------------|
 B|---------------------------------------------------------------------------|
 G|------0----0----------0-----0----------0-----0-----------------------------|
 D|----5----5----------3-----3----------3-----3-------------------------------|
 A|--3-----3----3----1-----1-----1----0-----0-----0---------------------------|
 E|---------------------------------------------------------------------------|

[F6]a child did rumble / [E7]went kicking loud trash
[Csus2/G]a ghost girl and a bull dog[F6] / [C7sus2/Bb]are whittling my flash
[F6]and in a kitchen of birds / [E7]sits a wicked child's cat
[Csus2/G]but the unbaited vicar / of scorched earth [F6]knows [C7sus2/G]that
[C5]but flash is not easy /[Bb6] to capture just outright
[Dsus4]but there if you fight for it / [C5]like broads in daylight[Bb6]
and say it with angeldust [Fadd9/A]/ sprinkle it fat
[F6]a child did rumble / went kicking loud trash
[E7]but the unbaited vicar / of scorched earth knows that \
2x
[Csus2/G]a child did rumble / went kicking loud trash[F6] [/]
[C7sus2/Bb]but the unbaited vicar / of scorched earth knows that

Important: The song above is NOT stored on the Chordie server. The original song is hosted at www.azchords.com. Chordie works as a search engine and provides on-the-fly formatting. Chordie does not index songs against artists'/composers' will. To remove this song please click here.

Text color:
Chord color:
Chord grids: 
Font size:    
Page size: 

Bb6 C5 Csus2/G Dsus4 E7 F6 Fadd9/A
Rate #1 of 1 versions

Login - add to songbook

SHARE PAGE  




You need to log in to post comments