Guitar Tabs, Chords and Lyrics
Update 25:10. 13:00. Site is back up running again. Songbooks are recovered. Woring on getting search back up..


At the End of the Rainbow  HammerFall

As recorded by HammerFall
(From the 1998 Album LEGACY OF KINGS)
Gtr I (Eb Ab Db Gb Bb Eb) - 'Untitled'
Gtr II (Eb Ab Db Gb Bb Eb) - 'Untitled'
Gtr III (Eb Ab Db Gb Bb Eb) - 'Untitled'
Intro
Q=95
[D5] [E5] 
[4/4] Gtr I
~
W W H Q E E Q Q H H S S E E S S
 
 |----------|----------|-------------|-------------|----------------------|
 |----------|----------|-------------|-------------|----------------------|
 |----------|----------|-----------7-|-9\----------|----------------------|
 |----------|----------|-----------7-|-9\----------|-------------7--------|
 |----------|----------|-----------5-|-7\----------|------7-9-10---10-9---|
 |----------|----------|-------------|-------------|----------------------|

|
| Gtr III
| ~
| W W H Q E E Q Q H H S S E E S S
 
 |----------|----------|-------------|-------------|----------------------|
 |----------|----------|-------------|-------------|----------------------|
 |----------|----------|-----------7-|-9\----------|----------------------|
 |----------|----------|-----------7-|-9\----------|----------------------|
 |----------|----------|-----------5-|-7\----------|----------------------|
 |----------|----------|-------------|-------------|------0-2--3-5--3-2---|

[E5] [D5E5]  
 
 PM--------| PM-----------

E S S S S S S S S S S S S S S
 
 ||--------------------------------|
 ||o-------------------------------|
 ||--9-----------------------------|
 ||--9-------------7s9-------------|
 ||o-7-------------5s7-------------|
 ||----0-0-0---0-0-----0-0-0---0-0-|

|
 
 | PM--------| PM-----------

| E S S S S S S S S S S S S S S
 
 ||--------------------------------|
 ||o-------------------------------|
 ||--------------------------------|
 ||--2-------------7s9-------------|
 ||o-2-------------5s7-------------|
 ||--0-0-0-0---0-0-----0-0-0---0-0-|

1. 2.
[G5A5E5] [D5E5]  
 
 ---------------| PM--------| ~

S S S S S S S S E E E E S S S S S S S S S S E E S S
 
 |--------------------------||---------------------------------|
 |-------------------------o||---------------------------------|
 |--------------------------||---------------------------------|
 |-----------------5-7-2----||-7s9--------------------7--------|
 |-----------------5-7-2---o||-5s7-------------7-9-10---10-9---|
 |-0---0-0-0---0-0-3-5-0----||-----0-0-0---0-0-----------------|

|
 
 |---------------| PM--------| ~

| S S S S S S S S E E E E S S S S S S S S S S E E S S
 
 |--------------------------||---------------------------------|
 |-------------------------o||---------------------------------|
 |--------------------------||---------------------------------|
 |-----------------5-7-2----||-7s9-----------------------------|
 |-----------------5-7-2---o||-5s7-----------------------------|
 |-0---0-0-0---0-0-3-5-0----||-----0-0-0---0-0-0-2--3-5--3-2---|

Verse
$
[E5] [D5E5] [G5A5E5]  
 
 PM--------| PM--------------------------|

E S S S S S S S S S S S S S S S S S S S S S S E E E E
 
 |-------------------------------|-------------------------|
 |-------------------------------|-------------------------|
 |-9-----------------------------|-------------------------|
 |-9-------------7s9-------------|-----------------5-7-2---|
 |-7-------------5s7-------------|-----------------5-7-2---|
 |---0-0-0---0-0-----0-0-0---0-0-|-0---0-0-0---0-0-3-5-0---|

|
 
 | PM--------| PM--------------------------|

| E S S S S S S S S S S S S S S S S S S S S S S E E E E
 
 |-------------------------------|-------------------------|
 |-------------------------------|-------------------------|
 |-------------------------------|-------------------------|
 |-2-------------7s9-------------|-----------------5-7-2---|
 |-2-------------5s7-------------|-----------------5-7-2---|
 |-0-0-0-0---0-0-----0-0-0---0-0-|-0---0-0-0---0-0-3-5-0---|

[G5] [F#5] [E5]  
 
 PM--------| ~

H H E S S S S S S S S E E S S
 
 |-----------|--------------------------------|
 |-8----7----|-5------------------------------|
 |-7----6----|-4------------------------------|
 |-5----4----|-2--------------------7---------|
 |-----------|---------------7-9-10---10-9----|
 |-----------|---0-0-0---0-0------------------|

|
 
 | PM----------| ~

| H H E S S S S S S S S E E S S
 
 |-----------|--------------------------------|
 |-----------|--------------------------------|
 |-----------|--------------------------------|
 |-5----4----|-2------------------------------|
 |-5----4----|-2------------------------------|
 |-3----2----|-0-0-0-0---0-0-0-2--3-5--3-2----|

[E5] [D5E5] [D5E5]  
 
 PM--------| PM--------| PM--------| ~

E S S S S S S S S S S S S S S S S S S S S S S S S E E S S
 
 |-------------------------------|-------------------------------|
 |-------------------------------|-------------------------------|
 |-9-----------------------------|-------------------------------|
 |-9-------------7s9-------------|-7s9--------------------7------|
 |-7-------------5s7-------------|-5s7-------------7-9-10---10-9-|
 |---0-0-0---0-0-----0-0-0---0-0-|-----0-0-0---0-0---------------|

|
 
 | PM--------| PM--------| PM--------| ~

| E S S S S S S S S S S S S S S S S S S S S S S S S E E S S
 
 |-------------------------------|-------------------------------|
 |-------------------------------|-------------------------------|
 |-------------------------------|-------------------------------|
 |-2-------------7s9-------------|-7s9---------------------------|
 |-2-------------5s7-------------|-5s7---------------------------|
 |-0-0-0-0---0-0-----0-0-0---0-0-|-----0-0-0---0-0-0-2--3-5--3-2-|

[G5] [F#5] [E5]  
 
 PM------------------------|

H H E S S S S S S S S S S S S S S
 
 |-----------|----------------------------------|
 |-8----7----|-5--------------------------------|
 |-7----6----|-4--------------------------------|
 |-5----4----|-2--------------------------------|
 |-----------|----------------------------------|
 |-----------|---0-0-0---0-0-0---0-0-0---0-0----|

|
 
 | PM------------------------|

| H H E S S S S S S S S S S S S S S
 
 |-----------|----------------------------------|
 |-----------|----------------------------------|
 |-----------|----------------------------------|
 |-5----4----|-2--------------------------------|
 |-5----4----|-2--------------------------------|
 |-3----2----|-0-0-0-0---0-0-0---0-0-0---0-0----|

[A5] [E5] [D5E5]  
 
 PM--------| PM--------|

H. Q E S S S S S S S S S S S S S S
 
 |------------|-------------------------------|
 |------------|-------------------------------|
 |------------|-------------------------------|
 |-7-------7--|-2-------------7s9-------------|
 |-7-------7--|-2-------------5s7-------------|
 |-5-------5--|-0-0-0-0---0-0-----0-0-0---0-0-|

|
 
 | PM--------| PM--------|

| H. Q E S S S S S S S S S S S S S S
 
 |------------|-------------------------------|
 |------------|-------------------------------|
 |------------|-------------------------------|
 |-7-------7--|-2-------------7s9-------------|
 |-7-------7--|-2-------------5s7-------------|
 |-5-------5--|-0-0-0-0---0-0-----0-0-0---0-0-|

[C5] [G5] [B5]  
 
 PM| PM--------|

H H E S S E S S S S S S E E
 
 |-----------|-------------------------||
 |-----------|-------------------------||
 |-5---------|-4-----4-----------------||
 |-5----5----|-4-----4-------------4---||
 |-3----5----|-2-2-2-2-2-2-2-3-2-0-2---||
 |------3----|-------------------------||

|
 
 | PM| PM--------|

| H H E S S E S S S S S S E E
 
 |-----------|-------------------------||
 |-----------|-------------------------||
 |-5---------|-4-----4-----------------||
 |-5----5----|-4-----4-------------4---||
 |-3----5----|-2-2-2-2-2-2-2-3-2-0-2---||
 |------3----|-------------------------||

Chorus
$$
Gtrs I, III
PM| PM| PM| PM| PM|
W H H E S S E S S H E S S E S S Q. S S
|----------|-----------|------------------|-----------------------|
|----------|-----------|------------------|-----------------------|
|----------|-5---------|------------------|-----------------------|
|-2--------|-5----5----|-7-----7-----2----|-5-----5-----4---------|
|-2--------|-3----5----|-7-----7-----2----|-5-----5-----4---------|
|-0--------|------3----|-5-5-5-5-5-5-0----|-3-3-3-3-3-3-2----3-2--|
To Coda
PM| PM| PM| PM| PM| PM| PM| PM|
E S S E S S E S S E S S H H E S S E S S H E S S E S S H
|-------------------------|-----------|------------------|------------------|
|-------------------------|-----------|------------------|------------------|
|-------------------------|-5---------|------------------|------------------|
|-2-----2-----2-----2-----|-5----5----|-7-----7-----2----|-5-----5-----4----|
|-2-----2-----2-----2-----|-3----5----|-7-----7-----2----|-5-----5-----4----|
|-0-0-0-0-0-0-0-0-0-0-0-0-|------3----|-5-5-5-5-5-5-0----|-3-3-3-3-3-3-2----|
D.S.
Gtr I
H. Q H E E Q
|------------|------------------||
|---------3--|-8----------------||
|-2-------2--|-7----9-----------||
|-2-------2--|-5----9-----------||
|-0----------|------7-----------||
|------------|------------------||
|
| Gtr III
| ~
| W H S S E E S S
|------------|------------------||
|------------|------------------||
|-2----------|------------------||
|-2----------|-5----------------||
|-0----------|-5----------------||
|------------|-3----0-2-3-5-3-2-||
Interlude
PM PM| PM| PM PM| PM PM| PM| PM PM|
S S S S S S S S S S S S S S E S S S S S S S S S S S S S S E
|-------------------------------|--------------------------------|
|---7-----7-----7---7-----5-7-5-|---7-----7-----7---7-----5-7-10-|
|---6-----6-----6---6-----4-6-4-|---6-----6-----6---6-----4-6--9-|
|-4---4-4---4-4---4---4-4-------|-4---4-4---4-4---4---4-4--------|
|-------------------------------|--------------------------------|
|-------------------------------|--------------------------------|
|
| E E E E E E E E E E E E E E E E
|-------------------------------|--------------------------------|
|-------------------------------|--------------------------------|
|-------------------------------|--------------------------------|
|-4-------4-------4-------4-----|-4-------4-------4-------4----7-|
|-4-------4-------4-------4-----|-4-------4-------4-------4----7-|
|-2-------2-------2-------2-----|-2-------2-------2-------2----5-|
PM PM| PM| PM PM| PM PM| PM--|
S S S S S S S S S S S S S S E S S S S S S S S E E E E
|-------------------------------|-------------------------|
|---7-----7-----7---7-----5-7-5-|---7-----7---------------|
|---6-----6-----6---6-----4-6-4-|---6-----6---------------|
|-4---4-4---4-4---4---4-4-------|-4---4-4---4-4-4-4-2-----|
|-------------------------------|---------------------4-2-|
|-------------------------------|-------------------------|
|
| E E E E E E E E E E E S S E E E E
|-------------------------------|-------------------------|
|-------------------------------|-------------------------|
|-------------------------------|-------------------------|
|-4-------4-------4-------4-----|-4-------4---------------|
|-4-------4-------4-------4-----|-4-------4-------2-0-----|
|-2-------2-------2-------2-----|-2-------2---2-2-----2-0-|
Guitar Solo
Gtr I
~~~~
Q Q Q. S S Q. S S Q. S S
|-14-------17-----21----------19-21-|-/22----------21-\19-/21------------19-21-|
|-----------------------------------|------------------------------------------|
|-----------------------------------|------------------------------------------|
|-----------------------------------|------------------------------------------|
|-----------------------------------|------------------------------------------|
|-----------------------------------|------------------------------------------|
|
| Gtr II
| ~~~~
| Q Q Q. S S Q. S S Q. S S
|--9-------14-----17----------16-17-|-/19----------17-\16-/17------------16-17-|
|-----------------------------------|------------------------------------------|
|-----------------------------------|------------------------------------------|
|-----------------------------------|------------------------------------------|
|-----------------------------------|------------------------------------------|
|-----------------------------------|------------------------------------------|
|
| Gtr III
| S S S S E S S S S S S E E S S S S E S S S S S S S S E
|-----------------------------------|------------------------------------------|
|-----------------------------------|------------------------------------------|
|-----------------------------------|------------------------------------------|
|----4---4--4-4-4-----4---4-2--2----|------4---4-4--4---4------4---4-2-4--7----|
|----4---4--4-4-4-----4---4-2--2----|------4---4-4--4---4------4---4-2-4--7----|
|--0-2---2--2-2-2--0--2---2-0--0----|---0--2---2-2--2---2---2--2---2-0-2--5----|
~~~~ ~~~~
Q. S S Q. S S
|-/22----------21-\19-/17----------17-19-|
|----------------------------------------|
|----------------------------------------|
|----------------------------------------|
|----------------------------------------|
|----------------------------------------|
|
| ~~~~
| Q. S S Q. S S
|-/19----------17-\16-/14----------14-16-|
|----------------------------------------|
|----------------------------------------|
|----------------------------------------|
|----------------------------------------|
|----------------------------------------|
|
| PM
| S S S S E S S S S S S E E
|----------------------------------------|
|----------------------------------------|
|----------------------------------------|
|------4---4-4--4---4------4---4---------|
|------4---4-4--4---4------4---4-2--2----|
|---0--2---2-2--2---2---2--2---2-0--0----|
|--------6---------| |-------6--------| |------6-------| |------6-------|
S S S S S S S S S S S S S S S S S S S S S S S S
|-22-21---19-21-19------19-------------------------------------------------------|
|--------------------22----22-21-22-21---19-21-19----19--------------------------|
|-------------------------------------------------21----21-19-21-19-18-19-18-16--|
|--------------------------------------------------------------------------------|
|--------------------------------------------------------------------------------|
|--------------------------------------------------------------------------------|
|
| |--------6---------| |-------6--------| |------6-------| |------6-------|
| S S S S S S S S S S S S S S S S S S S S S S S S
|--------------------------------------------------------------------------------|
|-24-22---21-22-21------21-------------------------------------------------------|
|--------------------23----23-21-23-21---19-21-19----19--------------------------|
|-------------------------------------------------23----23-21-23-21-19-21-19-----|
|----------------------------------------------------------------------------16--|
|--------------------------------------------------------------------------------|
|
| S S S S E S S E E E E
|--------------------------------------------------------------------------------|
|--------------------------------------------------------------------------------|
|--------------------------------------------------------------------------------|
|-------4----------4-----4--------4----4-----9--------7--------4--------2--------|
|-------4----------4-----4--------4----4-----9--------7--------4--------2--------|
|--0----2----------2-----2--------2----2-----7--------5--------2--------0--------|
TP TP TP ~~~~
E E E S S E. T T E. T T
|-20---22---24-22-24-/25------24-22-24----22-24-|
|-----------------------------------------------|
|-----------------------------------------------|
|-----------------------------------------------|
|-----------------------------------------------|
|-----------------------------------------------|
|
| TP TP TP ~~~~
| E E E S S E. T T E. T T
|-17---19---20-19-20-/22------20-19-20----19-20-|
|-----------------------------------------------|
|-----------------------------------------------|
|-----------------------------------------------|
|-----------------------------------------------|
|-----------------------------------------------|
|
| PM PM PM---| PM
| S S S S E S S S S S S E E
|-----------------------------------------------|
|-----------------------------------------------|
|-----------------------------------------------|
|----7----7--7------------7----7----------------|
|----7----7--7------------7----7-----7--7-------|
|--5-5--5-5--5--5--5---5--5-5--5-----5--5-------|
~~~ ~~~~
|--3--|
E. T T E. T T Q. S S S
|-25------/22-/24-/25----/24-/25---------------12-12-|
|----------------------------------------------------|
|--------------------------------21------------------|
|----------------------------------------------------|
|----------------------------------------------------|
|----------------------------------------------------|
|
| ~~~ ~~~~
| |--3--|
| E. T T E. T T Q. S S S
|-22------/19-/20-/22----/20-/22-21------------12-12-|
|----------------------------------------------------|
|----------------------------------------------------|
|----------------------------------------------------|
|----------------------------------------------------|
|----------------------------------------------------|
|
| PM PM PM PM PM|
| S S S S E S S S S S S E E
|----------------------------------------------------|
|----------------------------------------------------|
|--------------------------------------------7-------|
|-----7-----7-------7------7---------7-----7-7-------|
|-----7-----7-------7------7---------7-----7-5-------|
|--5--5-5---5-------5--5---5------5--5-5-5-5---------|
~~
|---3---|
E S S S E S S E S S Q
|-12---10-12---12-12-10-12-/17---15-13-12---|
|-------------------------------------------|
|-------------------------------------------|
|-------------------------------------------|
|-------------------------------------------|
|-------------------------------------------|
|
| ~~
| |---3---|
| E S S S E S S E S S Q
|-12---10-12---12-12-10-12-/17---15-13-12---|
|-------------------------------------------|
|-------------------------------------------|
|-------------------------------------------|
|-------------------------------------------|
|-------------------------------------------|
|
| PM PM PM---| PM
| S S S S E S S S S S S E E
|-------------------------------------------|
|-------------------------------------------|
|-------------------------------------------|
|----7-------7-----7-----------7-----7------|
|----7-------7-----7-----------7-----7--7-7-|
|--5-5--5----5-----5--5--5---5-5--5--5--5-5-|
|---3---| |---3---| |--3--| |---3---| |--3--| |--3--| |--3--| |--3--|
S S S S S S S S S S S S S S S S S S S S S S S S
|-17h18p==17-15h18p==15-13h15p13-12h13p==12-17h18p17-15h18p15-13h15p13-12h13p12-|
|-------------------------------------------------------------------------------|
|-------------------------------------------------------------------------------|
|-------------------------------------------------------------------------------|
|-------------------------------------------------------------------------------|
|-------------------------------------------------------------------------------|
|
| |---3---| |---3---| |--3--| |---3---| |--3--| |--3--| |--3--| |--3--|
| S S S S S S S S S S S S S S S S S S S S S S S S
|-17h18p==17-15h18p==15-13h15p13-12h13p==12-17h18p17-15h18p15-13h15p13-12h13p12-|
|-------------------------------------------------------------------------------|
|-------------------------------------------------------------------------------|
|-------------------------------------------------------------------------------|
|-------------------------------------------------------------------------------|
|-------------------------------------------------------------------------------|
|
| PM PM PM---|
| S S S S E S S E E E E
|-------------------------------------------------------------------------------|
|-------------------------------------------------------------------------------|
|-------------------------------------------------------------------------------|
|-------7----------7-----7-------------------7--------5--------3--------2-------|
|-------7----------7-----7-------------------7--------5--------3--------2-------|
|--5----5-----5----5-----5--------5----5-----5--------3--------1--------0-------|
Bridge
E E E E E S S +S S E
|-------------------------------|
|-10-10-10-10-10-10-------------|
|-------------------10-(10)-9-7-|
|-------------------------------|
|-------------------------------|
|-------------------------------|
|
| >
| W
|-10----------------------------|
|-------------------------------|
|-------------------------------|
|-------------------------------|
|-------------------------------|
|-------------------------------|
|
| W
|-------------------------------|
|-------------------------------|
|--7----------------------------|
|--7----------------------------|
|--5----------------------------|
|-------------------------------|
E E E E E S S +S S E H H H H
|---------------------------------|-10----10------|--8-------8----|
|---15-15-15-15--15---------------|---------------|---------------|
|-------------------15-(15)-14-12-|---------------|---------------|
|---------------------------------|---------------|---------------|
|---------------------------------|---------------|---------------|
|---------------------------------|---------------|---------------|
|
| E E E E E S S +S S E H Q Q Q E E H
|---------------------------------|---------------|---------------|
|---11-11-11-11--11---------------|-10----11--10--|---------------|
|-------------------10-(10)--9----|---------------|-12--10-9-9----|
|------------------------------12-|---------------|---------------|
|---------------------------------|---------------|---------------|
|---------------------------------|---------------|---------------|
|
| H +Q. E H H H H
|---------------------------------|---------------|---------------|
|---------------------------------|---------------|---------------|
|-3----------(3)----------------3-|--7------------|--5------------|
|-3----------(3)----------------3-|--7-----3------|--5-------5----|
|-1----------(1)----------------1-|--5-----3------|--3-------5----|
|---------------------------------|--------1------|----------3----|
E E E E E S S +S S E E E E E E S S +S S E
|---10-10-10-10-10--------------|---10-10-10-10--10---------------|
|------------------10-(10)-8----|-------------------11-(11)-10--8-|
|----------------------------10-|---------------------------------|
|-------------------------------|---------------------------------|
|-------------------------------|---------------------------------|
|-------------------------------|---------------------------------|
|
| E E E E E S S +S S E E E E E E S S +S S E
|-------------------------------|---------------------------------|
|---10-10-10-10-10--------------|---11-11-11-11--11---------------|
|------------------10-(10)-9----|-------------------10-(10)--9----|
|----------------------------12-|------------------------------12-|
|-------------------------------|---------------------------------|
|-------------------------------|---------------------------------|
|
| W H +Q. E
|-------------------------------|---------------------------------|
|-------------------------------|---------------------------------|
|-7-----------------------------|-3----------(3)----------------3-|
|-7-----------------------------|-3----------(3)----------------3-|
|-5-----------------------------|-1----------(1)----------------1-|
|-------------------------------|---------------------------------|
D.S.S. al Coda
Q E E Q Q Q E E H
|------------------|-----------------||
|-----8-10-11--10--|-8---------------||
|-10---------------|----10--9--9-----||
|------------------|-----------------||
|------------------|-----------------||
|------------------|-----------------||
|
| Q E E Q Q Q E E H
|------------------|-----------------||
|------------------|-----------------||
|-----9-10-12--10--|-9---------------||
|-12---------------|----12-11-11-----||
|------------------|-----------------||
|------------------|-----------------||
|
| H H H H
|------------------|-----------------||
|------------------|-----------------||
|------------------|-5---------2-----||
|--3--------5------|-5---------2-----||
|--3--------5------|-3---------0-----||
|--1--------3------|-----------------||
Out-Chorus
&
Gtrs I, III
PM| PM| PM| PM|
E S S E S S E S S E S S H H
|-------------------------|-----------|
|-------------------------|-----------|
|-------------------------|-7---------|
|-4-----4-----4-----4-----|-7----7----|
|-4-----4-----4-----4-----|-5----7----|
|-2-2-2-2-2-2-2-2-2-2-2-2-|------5----|
PM| PM| PM| PM| PM|
E S S E S S H E S S E S S Q. S S
|------------------|------------------------|
|------------------|------------------------|
|-4-----4----------|------------------------|
|-4-----4-----4----|-7-----7-----6----------|
|-2-2-2-2-2-2-4----|-7-----7-----6----------|
|-------------2----|-5-5-5-5-5-5-4----5-4---|
PM| PM| PM| PM| PM| PM| PM| PM|
E S S E S S E S S E S S H H E S S E S S H E S S E S S E E E E
|-------------------------|-----------|------------------|---------------------|
|-------------------------|-----------|------------------|---------------------|
|-------------------------|-7---------|-4-----4----------|---------------------|
|-4-----4-----4-----4-----|-7----7----|-4-----4-----4----|-7-----7-----9-7-4-2-|
|-4-----4-----4-----4-----|-5----7----|-2-2-2-2-2-2-4----|-7-----7-----9-7-4-2-|
|-2-2-2-2-2-2-2-2-2-2-2-2-|------5----|-------------2----|-5-5-5-5-5-5-7-5-2-0-|
Gtr I
PM PM| PM| PM PM| PM PM| PM| PM PM|
S S S S S S S S S S S S S S E S S S S S S S S S S S S S S E
|-------------------------------|--------------------------------|
|---7-----7-----7---7-----5-7-5-|---7-----7-----7---7-----5-7-10-|
|---6-----6-----6---6-----4-6-4-|---6-----6-----6---6-----4-6--9-|
|-4---4-4---4-4---4---4-4-------|-4---4-4---4-4---4---4-4--------|
|-------------------------------|--------------------------------|
|-------------------------------|--------------------------------|
|
| Gtr III
| E E E E E E E E E E E E E E E E
|-------------------------------|--------------------------------|
|-------------------------------|--------------------------------|
|-------------------------------|--------------------------------|
|-4-------4-------4-------4-----|-4-------4-------4-------4----7-|
|-4-------4-------4-------4-----|-4-------4-------4-------4----7-|
|-2-------2-------2-------2-----|-2-------2-------2-------2----5-|
Outro
PM PM| PM| PM PM| PM PM| PM--|
S S S S S S S S S S S S S S E S S S S S S S S E E E E E S S +Q H
|-------------------------------|-------------------------|-----------------*|
|---7-----7-----7---7-----5-7-5-|---7-----7---------------|-----------------*|
|---6-----6-----6---6-----4-6-4-|---6-----6---------------|-----------------*|
|-4---4-4---4-4---4---4-4-------|-4---4-4---4-4-4-9-7-4-2-|-4---4-(4)-------*|
|-------------------------------|-----------------9-7-4-2-|-4---4-(4)-------*|
|-------------------------------|-----------------7-5-2-0-|-2---2-(2)-------*|
|
| PM PM| PM--|
| E E E E E E E E S S S S S S S S E E E E E S S +Q H
|-------------------------------|-------------------------|-----------------*|
|-------------------------------|-------------------------|-----------------*|
|-------------------------------|-------------------------|-----------------*|
|-4-------4-------4-------4-----|---4-----4-------9-7-4-2-|-4---4-(4)-------*|
|-4-------4-------4-------4-----|---4-----4-------9-7-4-2-|-4---4-(4)-------*|
|-2-------2-------2-------2-----|-2-2-2-2-2-2-2-2-7-5-2-0-|-2---2-(2)-------*|
--------------------------------------------------------------------------------
Duration Legend
---------------
W - whole; H - half; Q - quarter; E - 8th; S - 16th; T - 32nd; X - 64th; a - acciaccatura
+ - note tied to previous; . - note dotted; .. - note double dotted
Uncapitalized letters represent notes that are staccato (1/2 duration)
Irregular groupings are notated above the duration line
Duration letters will always appear directly above the note/fret number it represents the
duration for. Duration letters with no fret number below them represent rests. Multi-
bar rests are notated in the form Wxn, where n is the number of bars to rest for. Low
melody durations appear below the staff
Tablature Legend
----------------
h - hammer-on
p - pull-off
b - bend
pb - pre-bend
r - bend release (if no number after the r, then release immediately)
/\ - slide into or out of (from/to "nowhere")
s - legato slide
S - shift slide
<n> - natural harmonic
[n] - artificial harmonic
n(n) - tapped harmonic
~ - vibrato
tr - trill
T - tap
TP - trem. picking
PM - palm muting
\n/ - tremolo bar dip; n = amount to dip
\n - tremolo bar down
n/ - tremolo bar up
/n\ - tremolo bar inverted dip
= - hold bend; also acts as connecting device for hammers/pulls
<> - volume swell (louder/softer)
x - on rhythm slash represents muted slash
o - on rhythm slash represents single note slash
Misc Legend
-----------
| - bar
|| - double bar
||o - repeat start
o|| - repeat end
*| - double bar (ending)
: - bar (freetime)
$ - Segno
& - Coda
Tempo markers - <E/E./Q/Q./H/H.> = BPM(8/16=s8/s16), where s8 = swing 8ths, s16 = swing 16ths

Important: The song above is NOT stored on the Chordie server. The original song is hosted at www.azchords.com. Chordie works as a search engine and provides on-the-fly formatting. Chordie does not index songs against artists'/composers' will. To remove this song please click here.

Text color:
Chord color:
Chord grids: 
Font size:    
Page size: 

A5 B5 C5 D5 E5 F#5 G5
Rate #2 of 3 versions

Login - add to songbook

SHARE PAGE  




You need to log in to post comments