Guitar Tabs, Chords and Lyrics
Login is temporarily disabled for some users. Do not panic. Will be back in an hour or two. DO NOT REREGISTER!!


I Can't Help It (If I'm Still in Love with You)  Hank Williams

I Can't Help It (If I'm Still In Love With You)
By Hank Williams
 
 E|--------------------------------------------------2-------------------
 B|--------------------------------------------------3----------------2--
 G|--2--4--2--2--------------------------------------2----------------2--
 D|--------------4/5--4--2----------3\2--0--------0-------------------2--
 A|-------------------------3\2--0----------2--0-------------0--2--0--0--
 E|-----------------------------------------------------0h2--------------

Today I [D]passed you [A]on the [D7]street,
And my [G]heart fell at your [D]feet.
I CAN'T [A]HELP IT if I'm [A7]still in love with [D]you.[A]
Somebody [D]else stood [A]by your [D7]side,
And he [G]looked so satisfie[D]d.
I CAN'T [A]HELP IT if I'm [A7]still in love with [D]you.[G] [D7]
A [G]picture from the past came softly [D]stealing,
As I [A]brushed your arm and walked so close to [D]you.
Then [G]suddenly I got that old time [D]feeling.
I CAN'T [A]HELP IT if I'm [A7]still in love with [D]you.
 
 E|------------------------------------------2-------------------2--------
 B|------------------------------------------3-------------------3--------
 G|--2--4--2--2---------------------4--2--0--2-------------------2--------
 D|--------------4/5--4--2----------5--4--2--0----------------0--0--------
 A|-------------------------3\2--0-------------------0--2--0--------------
 E|---------------------------------------------0h2-----------------------

It's [G]hard to know another's lips will [D]kiss you.
And [A]hold you just the way I used to [D]do.
Oh, [G]heaven only knows how much I [D]miss you.
I CAN'T [A]HELP IT if I'm still in love with [D]you.
Repeat last line.

Important: The song above is NOT stored on the Chordie server. The original song is hosted at www.azchords.com. Chordie works as a search engine and provides on-the-fly formatting. Chordie does not index songs against artists'/composers' will. To remove this song please click here.

Text color:
Chord color:
Chord grids: 
Font size:    
Page size: 

A A7 D D7 G
Rate #1 of 2 versions

Login - add to songbook

SHARE PAGE  



You need to log in to post comments