Guitar Tabs, Chords and Lyrics
Update 25:10. 13:00. Site is back up running again. Songbooks are recovered. Woring on getting search back up..


Un musicien parmi tant d'autres  Harmonium

Toune:Un musicien parmi tant d'autres
Un musicien parmi tant d'autres
(Harmonium)
Paroles et musique de Serge Fiori
Tablature de Marty McFly
[A/B] [Gm7/D] [Ebmaj7] [D9] [Fmaj7] [Gmaj7]  
 
 ----0------ -----1----- ----3----- ----0------ ----5------ -----7-----
 ----5------ -----3----- -----3----- ----1------ ----5------ -----7-----
 ----6------ -----3----- -----3----- ----3------ ----5------ -----7-----
 ----7------ -----0----- -----5----- ----0------ ----7------ -----9-----
 ----x------ -----x----- -----6----- ----x------ ----8------ ----10-----
 ----7------ -----3----- -----x----- ----x------ ----x------ -----x----- 

[G] [G/F] [Em7] [Am7] [D7] [Fmaj7/G]  
 
 ----3------ -----3----- -----3----- -----0----- -----2----- -----0-----
 ----3------ -----3----- -----3----- -----1----- -----1----- -----1-----
 ----0------ -----0----- -----0----- -----0----- -----2----- -----2-----
 ----0------ -----0----- -----2----- -----2----- -----0----- -----3-----
 ----x------ -----x----- -----2----- -----0----- -----x----- -----x-----
 ----3------ -----1----- -----0----- -----x----- -----x----- -----3-----

[G6/A] [Cadd9]  
 
 ----0------ -----3-----
 ----3------ -----3-----
 ----4------ -----0-----
 ----5------ -----2-----
 ----x------ -----3-----
 ----5------ -----x-----

Intro guitare (12 cordes)
RIFF 1
[A/B]  
 
 -------0--x--------------0----------
 -------5--x--(5)(5)(5)---5----------
 -------6--x--(6)(6)(6)---6----------
 -------7--x--(7)(7)(7)---7---x-x----
 -------x--x---x--x--x----x---x-x----
 -7--7--7--x---7--7--7----7---x-x----

(Jouer le riff 1 comme intro et durant une partie
des couplets et c'Est le meme patern pour les différents accords des couplets...!)
[A/B]Une main sur une épaule
Chacun a bien joué son rôle
Le r[Gm7/D]ideau monte et descend
Le musicien se serre les dents
Il e[Ebmaj7]st si bien pour une f[D9]ois
[A/B]? la porte d'un café
Son nom vient de s'effacer
On a[Gm7/D] trouvé quelqu'un de mieux
Le musicien se faisait vieux
Comme [Ebmaj7]un enfant, il était une f[D9]ois
Comme[Ebmaj7] le rideau sur une corde
Fmaj7 Gmaj7...
Le musicien monte et descend
(? PARTIR DE CE MOMENT IL FAUT JOUER AVEC LES HARMONIQUES
DE LA 12E FRETTE ET 7E FRETTE)
 
 Interlude : Fmaj7/G-------G6/A--------A/B (2x)

RIFF 1
A/B ( ) = Presque inaudible !
 
 -------0--x--------------0----------
 -------5--x--(5)(5)(5)---5----------
 -------6--x--(6)(6)(6)---6----------
 -------7--x--(7)(7)(7)---7---x-x----
 -------x--x---x--x--x----x---x-x----
 -7--7--7--x---7--7--7----7---x-x----

[A/B]Une nuit pour oublier
Y'a des problèmes qu'on veut saoûler
Une b[Gm7/D]outeille monte et descend
Le musicien se serre les dents
Il e[Ebmaj7]st si loin, une autre f[D9]ois
[A/B]? la porte d'un café
Les noms ne font que changer
Il a [Gm7/D]enfin compris pourquoi
Le sien ne sera plus l
Comme [Ebmaj7]un enfant, on ne vit qu'une f[D9]ois
C[Ebmaj7]omme le fond d'une bouteille
Fmaj7 Gmaj7...
Le musicien monte et descend
[G]Où est allé tout ce monde
[G/F]Qui avait quelque chose racon[Em7]ter
[Cadd9]Ti li li la la la
[Am7]On a mis quelqu'un au monde
[D7]On devrait peut-être l'écou[G]ter
Ti li li la[D7] la la

Important: The song above is NOT stored on the Chordie server. The original song is hosted at www.azchords.com. Chordie works as a search engine and provides on-the-fly formatting. Chordie does not index songs against artists'/composers' will. To remove this song please click here.

Text color:
Chord color:
Chord grids: 
Font size:    
Page size: 

A/B Am7 Cadd9 D7 D9 Ebmaj7 Em7 Fmaj7 Fmaj7/G G G/F G6/A Gm7/D Gmaj7
Rate #1 of 3 versions

Login - add to songbook

SHARE PAGE  



You need to log in to post comments