Guitar Tabs, Chords and Lyrics
Server problems seems to be fixed. Chordie has been experiencing problems with songs disappearing. These issues now seems to be fixed, but still verifying the fix. If you find anything strange, please email admin@chordie.com.


Elevator  Hawk Nelson

Intro: G Am Em C
Guitar 1: goes through Verse 1
 
 e|--------7--5----7--7--5--7--5--(5)----7--5----7--7--5--7--5--(5)-----------|
 B|--------8--8----8--8--8--8--8--(8)----8--8----8--8--8--8--8--(8)-----------|
 G|-------(0)-----------------------------------------------------------------|
 D|---------------------------------------------------------------------------|
 A|------------------(0)------------------------------------------------------|
 E|-------------------------------------(0)--------(8)------------------------|

Guitar 2: goes through Verse 1
 
 e|---------------------------------------------------------------------------|
 B|-------(3)(3)--(3)-(3)(3)(3)(3)-(3)----(3)(3)--(3)-(3)(3)(3)(3)-(3)--------|
 G|--------4--4----4---5--5--5--5---5------4--4----4---0--0--0--0---0---------|
 D|--------5--5----5---5--5--5--5---5------5--5----5---5--5--5--5---5---------|
 A|-------------------(0)-----------------------------(3)---------------------|
 E|-------(3)-----------------------------(0)---------------------------------|

Verse 1:
Feelin' t[G]ired of feelin' n[Am]othin'
Feelin' s[Em]tuck in the mud and I'm o[C]ver it
So far d[G]own, lookin' a[Am]round
And I d[Em]on't know how I'm g[C]ettin' out
Prechorus:
Guitar 1: repeats intro riff
Guitar 2: (optional)(can play Guitar 2 intro riff as well here)
[G] [Am] [Em] [C]  
 
 e|--10--7-----------7--------7----10--7----------7----------------------------|
 B|----------10--8-10--10-8-10-------------8--8-10--10-8-10-8~----8/-----------|
 G|-(0)------------^^^^^^^^^^^^^^---------(0)-^^^^^^^^^^^^^^^-----^------------|
 D|----------------(optional--------------------(optional-------(2nd-----------| (2x)
 A|---------(0)-------riff)------------------------riff)-------ending)---------|
 E|-------------------------------(0)-----(8)----------------------------------|

But h[G]ey, hey, h[Am]ey
I hear You tell me not to s[Em]tay, stay, st[C]ay
The door is open every d[G]ay, day, d[Am]ay
It takes me to another p[Em]lace, place, pl[C]ace
Chorus:
Both Guitars:
[G] [Am] [Em] [C]  
 
 e|---------------------------------------------------------------------------|
 B|---------------------------------------------------------------------------|
 G|----------------------------------5-5--5-5--(5)----------------------------| (4x)
 D|------5-5---5/7-7-------7/2-2---2-5-5--5-5--(5)----------------------------|
 A|------5-5---5/7-7-------7/2-2---2-3-3--3-3--(3)----------------------------|
 E|------3-3---3/5-5-------5/0-0---0------------------------------------------|

Like an el[G]evator[Am]
Can't s[Em]top 'cause Your love is lif[C]tin' me up
Like an el[G]evator[Am]
I've n[Em]ever felt like I'm fe[C]elin' tonight
S[G]traight off the ground, w[Am]e'll never come down
Can't s[Em]top 'cause Your love is li[C]ftin' me now
Like an e[G]levator[Am]
Like an e[Em]levator[C]
Verse 2:
Guitar 1 or 2: (doesn't matter)
[G] [Am] [Em] [C]  
 
 e|---------------------------------------------------------------------------|
 B|----33333333--33333333--33333333--33333333---------------------------------|
 G|----44444444--55555555--44444444--00000000---------------------------------|
 D|----55555555--55555555--55555555--55555555---------------------------------| (2x)
 A|-------------(0)-----------------(3)---------------------------------------|
 E|---(3)-----------------(0)-------------------------------------------------|

Way up h[G]igh, like I'm f[Am]lyin'
And I'm f[Em]inally feelin' so[C] alive
You and [G]I, to the s[Am]ky
Gonna b[Em]low the roof off f[C]rom the inside
Prechorus 2:
Guitar 1 or 2:
[G] [Am] [Em] [C]  
 
 e|---------------------------------------------------------------------------|
 B|---------------------------------------------------------------------------|
 G|-----777-444--------4------4---777-444--------4----------------------------|
 D|-------------777-5-7--7-5-7------------555-5-7--7-5-7-5----5/--------------| (2x)
 A|------------(0)-----------------------(3)------------------^---------------|
 E|----(3)-----------------------(0)----------------------(2nd-time)----------|

So h[G]ey, hey, h[Am]ey
I hear You tell me not to s[Em]tay, stay, st[C]ay
The door is open every d[G]ay, day, d[Am]ay
It takes me to another p[Em]lace, place, pl[C]ace
Chorus: same as first chorus
Like an e[G]levator[Am]
Can't s[Em]top 'cause Your love is li[C]ftin' me up
Like an el[G]evator[Am]
I've n[Em]ever felt like I'm f[C]eelin' tonight
S[G]traight off the ground, we'l[Am]l never come down
Can't [Em]stop 'cause Your love is l[C]iftin' me now
Like an e[G]levator[Am]
Like an e[Em]levator ([C]Woo!)
Rap(Blanca Callahan): mostly bass, but Guitars can play Verse 2 riff
Here we go!
Here we g[G]o!
When we gonna stop?
No one kn[Am]ows
Everybody up
Get on b[Em]oard
You know you wanna come al[C]ong for the ride
So let's g[G]o
Everyone on the flyest t[Am]rain
Never gonna be the sa[Em]me
I'm feelin' so fantas[C]tic
This party's everlastin'
[G]So grab your fri[Am]ends
Push all the b[Em]uttons
Ain't gonna st[C]op until we get up to the t[G]op floor
Top flo[Am]or
'Cause there's no way that we can [Em]feel more
Feel more
[C]Here we go!
Chorus: same as first chorus
N.C. N.C.
Like an elevator (elevator)
Can't s[Em]top 'cause You're love is l[C]iftin' me up
Like an e[G]levator (e[Am]levator)
I've n[Em]ever felt like I'm fe[C]elin' tonight
[G]Straight off the ground,[Am] we'll never come down
Can't s[Em]top 'cause You're love is li[C]ftin' me now
Like an [G]elevator (e[Am]levator)
Like an [Em]elevator (l[C]ike an elevator)
Outro:
G(let ring)
Whoa, hey, an elevator

Important: The song above is NOT stored on the Chordie server. The original song is hosted at www.azchords.com. Chordie works as a search engine and provides on-the-fly formatting. Chordie does not index songs against artists'/composers' will. To remove this song please click here.

Text color:
Chord color:
Chord grids: 
Font size:    
Page size: 

Am C Em G
Rate #1 of 1 versions

Jango Player

Login - add to songbook

SHARE PAGE  




You need to log in to post comments