Guitar Tabs, Chords and Lyrics
Server problems seems to be fixed. Chordie has been experiencing problems with songs disappearing. These issues now seems to be fixed, but still verifying the fix. If you find anything strange, please email admin@chordie.com.


I Wanna Touch   The Hellacopters

 
 -----------------------------------------------------------------------------

 


 I Wanna Touch - Hellacopters


 

 
 -----------------------------------------------------------------------------

 


 


 Tuning:


 I play the song in standard tuning but if you want to play along with


 the record you have to tune down the guitars one half step! The solos


 are not tabbed - I suggest you just improvise those parts!


 


 Guitar 1 plays the intro 4 times like this:


 


 

 
 E||------0--------------------|---------------------|
 B||---------3-----------1-----|-------6----5--------|
 G||------------2-----2-----2--|--3----5----5--------|
 D||---0-----------3-----------|--3------------------|
 A||---------------------------|---------------------|
 E||---------------------------|---------------------|

 


 


 then, for the verse, goes into a rockabilly-like riff that is played with


 the index finger first on the 10th fret:


 


 

 
 |--10--10--10------------10--10--------|------10--10------------10--10----|
 |--10--10--10------------10--10--------|------10--10------------10--10----|
 |--------------12-10-11----------12-10-|--11----------12-10-11------------|
 |--------------------------------------|----------------------------------|
 |--------------------------------------|----------------------------------|
 |--------------------------------------|----------------------------------|

 


 


 then on the 3rd fret:


 


 

 
 |--3--3--3---------3--3------|-----3--3---------3--3----|
 |--3--3--3---------3--3------|-----3--3---------3--3----|
 |-----------5-3-4--------5-3-|--4--------5-3-4----------|
 |----------------------------|--------------------------|
 |----------------------------|--------------------------|
 |----------------------------|--------------------------|

 


 


 and finally on the 5th fret:


 


 

 
 |--5--5--5---------5--5------|-----5--5---------5--5----|
 |--5--5--5---------5--5------|-----5--5---------5--5----|
 |-----------7-5-6--------7-5-|--6--------7-5-6----------|
 |----------------------------|--------------------------|
 |----------------------------|--------------------------|
 |----------------------------|--------------------------|

 


 


 Then the intro riff is played another 4 times as chorus:


 


 

 
 |------0--------------------|---------------------|
 |---------3-----------1-----|-------6----5--------|
 |------------2-----2-----2--|--3----5----5--------|
 |---0-----------3-----------|--3------------------|
 |---------------------------|---------------------|
 |---------------------------|---------------------|


Important: The song above is NOT stored on the Chordie server. The original song is hosted at www.azchords.com. Chordie works as a search engine and provides on-the-fly formatting. Chordie does not index songs against artists'/composers' will. To remove this song please click here.

This song is displayed as text-only. Transposing and tuning is only available for chordpro-songs.
Rate #2 of 2 versions

Jango Player

Login - add to songbook

SHARE PAGE  




You need to log in to post comments