Guitar Tabs, Chords and Lyrics
Server problems seems to be fixed. Chordie has been experiencing problems with songs disappearing. These issues now seems to be fixed, but still verifying the fix. If you find anything strange, please email admin@chordie.com.


Human   Hellyeah

 
 D|---------------------------------------------------------------------------|
 A|---------------------------------------------------------------------------|
 F|--7-------5--------5--------9---------10-----------------------------------|
 C|--7-------5--------5--------9---------10-----------------------------------|
 G|--5-------3--------3--------7---------8------------------------------------|
 C|----------3-----------------7---------8------------------------------------|

 


 


 


 [Pre-Verse] 


 


 

 
 D|---------------------------------------------------------------------|
 A|---------------------------------------------------------------------|
 F|-------------10--------9---------8---------8-------------------------| X3
 C|---------------------------------------------------------------------|
 G|-------------8---------7---------6---------6-------------------------|
 C|----0-0-0-0----0-0-0-0---0-0-0-0---0-0-0-0-----0-0-0-0-0-0-0-0-------|
 PM--------------|
 D|------------------------------------------------------------------|
 A|------------------------------------------------------------------|
 F|-------------10---------9----------8----------8-------------------|
 C|------------------------------------------------------------------|
 G|-------------8----------7----------6----------6---10-8-7-8-10-8-7-|
 C|----0-0-0-0-----0-0-0-0----0-0-0-0----0-0-0-0---------------------|

 


 


 


 [Verse] 


 


 

 
 D|-----------------------------------------------------------------------------------------------------------|
 A|------------------------------------------------5----------------------------------------------------5-----|
 F|--------------------------------------------4-5---4h5--------------------------------------------4-5---5h7-|
 C|-----------------------------------------------------------------------------------------------------------|
 G|-----------------------------------------------------------------------------------------------------------|
 C|--0-0-0-0----0-0-0-0----0-0-0-0----0-0-0-0--------------3-3-3-3----3-3-3-3----3-3-3-3----3-3-3-3-----------|
 D|---------------------------------------------------|
 A|---------------------------------------------0-5-0-|
 F|-----------------------------------------4-5-------|
 C|---------------------------------------------------|
 G|---------------------------------------------------|
 C|--0-0-0-0---0-0-0-0---0-0-0-0---0-0-0-0------------|
 D|------------------------------------------------------------------|
 A|-5h7-7-7-7-7-7-7-7-7-7-7-7-7-7-7-6-6-6-6-6-6-6-6-6-6-6-6----------|
 F|------------------------------------------------------------------|
 C|------------------------------------------------------------------|
 G|------------------------------------------------------------------|
 C|-------------------------------------------------------------16\--|
 D|-----------------------------------------------------------------------------------------------------------|
 A|------------------------------------------------5----------------------------------------------------5-----|
 F|--------------------------------------------4-5---4h5--------------------------------------------4-5---5h7-|
 C|-----------------------------------------------------------------------------------------------------------|
 G|-----------------------------------------------------------------------------------------------------------|
 C|--0-0-0-0----0-0-0-0----0-0-0-0----0-0-0-0--------------3-3-3-3----3-3-3-3----3-3-3-3----3-3-3-3-----------|
 D|---------------------------------------------------|
 A|---------------------------------------------0-5-0-|
 F|-----------------------------------------4-5-------|
 C|---------------------------------------------------|
 G|---------------------------------------------------|
 C|--0-0-0-0---0-0-0-0---0-0-0-0---0-0-0-0------------|
 D|------------------------------------------------------------------|
 A|-5h7-7-7-7-7-7-7-7-7-7-7-7-7-7-7-6-6-6-6-6-6-6-6-6-6-6-6----------|
 F|------------------------------------------------------------------|
 C|------------------------------------------------------------------|
 G|------------------------------------------------------------------|
 C|-------------------------------------------------------------16\--|
 D|--------------------------------------|
 A|--------------------------------------|
 F|----------2-----0--2--0--2/5----------|
 C|-------0-----0------------------------|
 G|----0---------------------------------|
 C|--------------------------------------|

 


 


 [Cborus] 


 


 

 
 D|----------------------------------------------------|
 A|----------------------------------------------------|
 F|----------------------------------------------------|
 C|-10-12-12-12-12-12-10-12-12-12-12-12-10-12-12-12----|
 G|-10-12-12-12-12-12-10-12-12-12-12-12-10-12-12-12----|
 C|-10-12-12-12-12-12-10-12-12-12-12-12-10-12-12-12----|
 PM--------------|
 D|--------------------------------------------------|
 A|--------------------------------------------------|
 F|--------------------------------------------------|
 C|-5-3-3-3-3-3-5-3-3-3-3-3--------------------------|
 G|-5-3-3-3-3-3-5-3-3-3-3-3--------------------------|
 C|-5-3-3-3-3-3-5-3-3-3-3-3-----5-3-2-3-5-3-2--------|
 D|--------------------------------------------------|
 A|--------------------------------------------------|
 F|--------------------------------------------------|
 C|-9-10-10-10-10-10-9-10-10-10-10-10-9-10-10-10-----|
 G|-9-10-10-10-10-10-9-10-10-10-10-10-9-10-10-10-----|
 C|-9-10-10-10-10-10-9-10-10-10-10-10-9-10-10-10-----|
 PM------------------|
 D|----------------------------------------------------|
 A|----------------------------------------------------|
 F|----------------------------------------------------|
 C|-3-5-5-5-5-5-7-8-8-8-8-8----------------------------|
 G|-3-5-5-5-5-5-7-8-8-8-8-8----------------------------|
 C|-3-5-5-5-5-5-7-8-8-8-8-8------12-10-9-10-12-10-9----|
 D|----------------------------------------------------|
 A|----------------------------------------------------|
 F|----------------------------------------------------|
 C|-10-12-12-12-12-12-10-12-12-12-12-12-10-12-12-12----|
 G|-10-12-12-12-12-12-10-12-12-12-12-12-10-12-12-12----|
 C|-10-12-12-12-12-12-10-12-12-12-12-12-10-12-12-12----|
 PM--------------|
 D|--------------------------------------------------|
 A|--------------------------------------------------|
 F|--------------------------------------------------|
 C|-5-3-3-3-3-3-5-3-3-3-3-3--------------------------|
 G|-5-3-3-3-3-3-5-3-3-3-3-3--------------------------|
 C|-5-3-3-3-3-3-5-3-3-3-3-3-----5-3-2-3-5-3-2--------|
 D|----------------------------------------------------|
 A|----------------------------------------------------|
 F|----------------------------------------------------|
 C|-3-5-5-5-5-5-7-8------------------------------------|
 G|-3-5-5-5-5-5-7-8------------------------------------|
 C|-3-5-5-5-5-5-7-8-------------------------16\--------|

 


 


 


 [Verse] X1


 


 


 [Second Cborus] 


 


 The Chorus is the same, but the last bar is played like this...


 


 

 
 PM-----------------|
 D|----------------------------------------------------|
 A|----------------------------------------------------|
 F|----------------------------------------------------|
 C|-3-5-5-5-5-5-7-8-8-8-8-8----------------------------|
 G|-3-5-5-5-5-5-7-8-8-8-8-8----------------------------|
 C|-3-5-5-5-5-5-7-8-8-8-8-8------12-10-9-10-12-10-9----|

 


 


 


 [Pre-Solo] 


 


 

 
 D|---------------------------------------------------------------------|
 A|---------------------------------------------------------------------|
 F|-------------10--------9---------8---------8-------------------------|
 C|---------------------------------------------------------------------|
 G|-------------8---------7---------6---------6-------------------------|
 C|----0-0-0-0----0-0-0-0---0-0-0-0---0-0-0-0-----0-0-0-0-0-0-0-0-------|
 PM--------------|
 D|------------------------------------------------------------------|
 A|------------------------------------------------------------------|
 F|-------------10---------9----------8----------8-------------------|
 C|------------------------------------------------------------------|
 G|-------------8----------7----------6----------6---10-8-7-8-10-8-7-|
 C|----0-0-0-0-----0-0-0-0----0-0-0-0----0-0-0-0---------------------|

 


 


 


 [Solo] 


 


 

 
 D|--------------------------------------------------------------------------------------------------------|
 A|--12p10----10h12p10----10h12p10----10h13p10----10h12p10----10h12p10----10h13p10----10h12~~~~~~~---------|
 F|--------12----------12----------12----------12----------12----------12----------12----------------------|
 C|--------------------------------------------------------------------------------------------------------|
 G|--------------------------------------------------------------------------------------------------------|
 C|--------------------------------------------------------------------------------------------------------|
 D|--15-13----13-15-13----13-15-13----13-16-13----13----15-15-13----13-13----------------------------------|
 A|--------15----------15----------15----------15----------------15-------15-13-15-15-13----/15~~~~~-------|
 F|--------------------------------------------------------------------------------------14----------------|
 C|--------------------------------------------------------------------------------------------------------|
 G|--------------------------------------------------------------------------------------------------------|
 C|--------------------------------------------------------------------------------------------------------|
 D|----/17---------17b------15------|
 A|---------------------------------|
 F|---------------------------------|
 C|---------------------------------|
 G|---------------------------------|
 C|---------------------------------|
 D|---15-15-15-13-13-13-15-15-15-17-17-17-15-15-15-17-17-17-20-20-20-17-17-17-20-20-21b~~~~~~--------------|
 A|--------------------------------------------------------------------------------------------------------|
 F|--------------------------------------------------------------------------------------------------------|
 C|--------------------------------------------------------------------------------------------------------|
 G|--------------------------------------------------------------------------------------------------------|
 C|-------------------------------------------------------------------------------------------------16\----|
 D|------------------------------------------------|
 A|------------------------------------------------|
 F|------------------------------------------------|
 C|------------------------------------------------|
 G|----5---3---3-----------------------------------|
 C|----5---3---3-----------------------------------|

 


 


 


 [Tbird Cborus] 


 


 


 

 
 D|--------------------------------------------------|
 A|--------------------------------------------------|
 F|--------------------------------------------------|
 C|-9-10-10-10-10-10-9-10-10-10-10-10-9-10-10-10-----|
 G|-9-10-10-10-10-10-9-10-10-10-10-10-9-10-10-10-----|
 C|-9-10-10-10-10-10-9-10-10-10-10-10-9-10-10-10-----|
 PM-------------------|
 D|----------------------------------------------------|
 A|----------------------------------------------------|
 F|----------------------------------------------------|
 C|-3-5-5-5-5-5-7-8-8-8-8-8----------------------------|
 G|-3-5-5-5-5-5-7-8-8-8-8-8----------------------------|
 C|-3-5-5-5-5-5-7-8-8-8-8-8------12-10-9-10-12-10-9----|
 D|----------------------------------------------------|
 A|----------------------------------------------------|
 F|----------------------------------------------------|
 C|-10-12-12-12-12-12-10-12-12-12-12-12-10-12-12-12----|
 G|-10-12-12-12-12-12-10-12-12-12-12-12-10-12-12-12----|
 C|-10-12-12-12-12-12-10-12-12-12-12-12-10-12-12-12----|
 PM--------------|
 D|--------------------------------------------------|
 A|--------------------------------------------------|
 F|--------------------------------------------------|
 C|-5-3-3-3-3-3-5-3-3-3-3-3--------------------------|
 G|-5-3-3-3-3-3-5-3-3-3-3-3--------------------------|
 C|-5-3-3-3-3-3-5-3-3-3-3-3-----5-3-2-3-5-3-2--------|
 D|----------------------------------------------------|
 A|----------------------------------------------------|
 F|----------------------------------------------------|
 C|-3-5-5-5-5-5-7-8------------------------------------|
 G|-3-5-5-5-5-5-7-8------------------------------------|
 C|-3-5-5-5-5-5-7-8-------------------------16\--------|

 


 


 


 


 [Outro] 


 


 

 
 D|---------------------------------------------------------------------|
 A|---------------------------------------------------------------------|
 F|-------------10--------9---------8---------8-------------------------|
 C|---------------------------------------------------------------------|
 G|-------------8---------7---------6---------6-------------------------|
 C|----0-0-0-0----0-0-0-0---0-0-0-0---0-0-0-0-----0-0-0-0-0-0-0-0-------|
 D|---------------------------------------------------------------------|
 A|---------------------------------------------------------------------|
 F|-------------10--------9---------8---------8-------------------------|
 C|---------------------------------------------------------------------|
 G|-------------8---------7---------6---------6-------------------------|
 C|----0-0-0-0----0-0-0-0---0-0-0-0---0-0-0-0---------------------------|


Important: The song above is NOT stored on the Chordie server. The original song is hosted at www.azchords.com. Chordie works as a search engine and provides on-the-fly formatting. Chordie does not index songs against artists'/composers' will. To remove this song please click here.

This song is displayed as text-only. Transposing and tuning is only available for chordpro-songs.
Rate #1 of 1 versions

Jango Player

Login - add to songbook

SHARE PAGE  




You need to log in to post comments