Guitar Tabs, Chords and Lyrics
Server problems seems to be fixed. Chordie has been experiencing problems with songs disappearing. These issues now seems to be fixed, but still verifying the fix. If you find anything strange, please email admin@chordie.com.


Someone's Watching Over Me  Hilary Duff

This is my first tab submition. Tell me what you think of it. Enjoy.
Intro:
[C#m] [E] [A] [C#m]  
 
 e|-------------(4)-------(4)------5------------4---------------------------|
 B|--------------5---------5-------5------------5---------------------------|
 G|--------------6---------4-------6------------6---------------------------|
 D|--------------6---------6-------7------------6---------------------------|
 A|--------------4---------7-------7------------4---------------------------|
 E|--------------X--------(4)------5------------X---------------------------|

Verse 1:
[C#m] Found myself [F#m]today, oh I fo[B]und myself and ra[A/B]n awa[E]y[G#]
 
 e|4----------------2-----------2-----------------X----0----X---------------|
 B|5----------------2-----------4-----------------4----0----1--1-2---4------|
 G|6----------------2-----------4-----------------4----1----1---------------|
 D|6----------------4-----------4-----------------4----2----1---------------|
 A|4----------------4-----------2-----------------0----2----X---------------|
 E|X ---------------2-----------X----------------(0)---0----X---------------|

[C#m]Something pulled me b[F#m]ack, voice of re[B]ason I forgot[A/B] I ha[E]d
 
 e|4--------------------2-------------2------------X-----0------------------|
 B|5--------------------2-------------4------------4-----0------------------|
 G|6--------------------2-------------4------------4-----1------------------|
 D|6--------------------4-------------4------------4-----2------------------|
 A|4--------------------4-------------2------------0-----2------------------|
 E|X -------------------2-------------X-----------(0)----0------------------|

[G#]All I know is [A]you're not here to say [B]what you always used to say
 
 e|X ------------(0)--------------------(2)---------------------------------|
 B|1--1-2---4-----2----------------------4----------------------------------|
 G|1--------------2----------------------4----------------------------------|
 D|1--------------2----------------------4----------------------------------|
 A|X--------------0----------------------2----------------------------------|
 E|X--------------X----------------------X----------------------------------|

B[A]ut it's written in the sky t[B]onight
 
 e|-(0)-------------------------(2)-----------------------------------------|
 B|--2---------------------------4------------------------------------------|
 G|--2---------------------------4------------------------------------------|
 D|--2---------------------------4------------------------------------------|
 A|--0---------------------------2------------------------------------------|
 E|--X---------------------------X------------------------------------------|

Chorus:
So I [E]won't give up, no I [B]won't break down
 
 e|-----0------------------(2)----------------------------------------------|
 B|-----0-------------------4-----------------------------------------------|
 G|-----1-------------------4-----------------------------------------------|
 D|-----2-------------------4-----------------------------------------------|
 A|-----2-------------------2-----------------------------------------------|
 E|-----0-------------------X-----------------------------------------------|

[C#m]Sooner than it [B]seems life [Am9]turns ar[B]ound
 
 e|-4------------(2)---------0------(2)-------------------------------------|
 B|-5-------------4----------0-------4--------------------------------------|
 G|-6-------------4----------2-------4--------------------------------------|
 D|-6-------------4----------2-------4--------------------------------------|
 A|-4-------------2----------0-------2--------------------------------------|
 E|-X-------------X----------X-------X--------------------------------------|

And I [E]will be strong, even if it [B]all goes wrong
 
 e|------0-------------------------(2)--------------------------------------|
 B|------0--------------------------4---------------------------------------|
 G|------1--------------------------4---------------------------------------|
 D|------2--------------------------4---------------------------------------|
 A|------2--------------------------2---------------------------------------|
 E|------0--------------------------X---------------------------------------|

When I'm [C#m]standing in the [B]dark I'll still [F#]believe
 
 e|---------4--------------(2)--------------2-------------------------------|
 B|---------5---------------4---------------2-------------------------------|
 G|---------6---------------4---------------3-------------------------------|
 D|---------6---------------4---------------4-------------------------------|
 A|---------4---------------2---------------4-------------------------------|
 E|---------X---------------X---------------2-------------------------------|

[Am9]Someone's watching [B]over [E]me
 
 e|-0----------------(2)---0------------------------------------------------|
 B|-0-----------------4----0------------------------------------------------|
 G|-2-----------------4----1------------------------------------------------|
 D|-2-----------------4----2------------------------------------------------|
 A|-0-----------------2----2------------------------------------------------|
 E|-X-----------------X----0------------------------------------------------|

Verse 2:
[C#m]Seen that red [F#m]light, and it's s[B]hining on my d[A/B]esti[E]ny. Sh[G#]ining all the time[C#m]
 
 e|4--------------2--------------2--------------X--0----X---------------4---|
 B|5--------------2--------------4--------------4--0----1--1-2---4------5---|
 G|6--------------2--------------4--------------4--1----1---------------6---|
 D|6--------------4--------------4--------------4--2----1---------------6---|
 A|4--------------4--------------2--------------0--2----X---------------4---|
 E|X -------------2--------------X-------------(0)-0----X---------------X---|

[C#m]and I won't be [F#m]afraid To f[B]ollow everywhere[A/B] it's [E]taking me
 
 e|4--------------2--------------------2---------------X-----0--------------|
 B|5--------------2--------------------4---------------4-----0--------------|
 G|6--------------2--------------------4---------------4-----1--------------|
 D|6--------------4--------------------4---------------4-----2--------------|
 A|4--------------4--------------------2---------------0-----2--------------|
 E|X--------------2--------------------X--------------(0)----0--------------|

[G#]All I know is [A]yesterday is gone, and [B]right now I belong
 
 e|X ------------(0)--------------------(2)---------------------------------|
 B|1--1-2---4-----2----------------------4----------------------------------|
 G|1--------------2----------------------4----------------------------------|
 D|1--------------2----------------------4----------------------------------|
 A|X--------------0----------------------2----------------------------------|
 E|X--------------X----------------------X----------------------------------|

T[A]o this moment [B]to my dreams
 
 e|-(0)-------------(2)-----------------------------------------------------|
 B|--2---------------4------------------------------------------------------|
 G|--2---------------4------------------------------------------------------|
 D|--2---------------4------------------------------------------------------|
 A|--0---------------2------------------------------------------------------|
 E|--X---------------X------------------------------------------------------|

Chorus:
So I [E]won't give up, no I [B]won't break down
 
 e|-----0------------------(2)----------------------------------------------|
 B|-----0-------------------4-----------------------------------------------|
 G|-----1-------------------4-----------------------------------------------|
 D|-----2-------------------4-----------------------------------------------|
 A|-----2-------------------2-----------------------------------------------|
 E|-----0-------------------X-----------------------------------------------|

[C#m]Sooner than it [B]seems life [Am9]turns ar[B]ound
 
 e|-4------------(2)---------0------(2)-------------------------------------|
 B|-5-------------4----------0-------4--------------------------------------|
 G|-6-------------4----------2-------4--------------------------------------|
 D|-6-------------4----------2-------4--------------------------------------|
 A|-4-------------2----------0-------2--------------------------------------|
 E|-X-------------X----------X-------X--------------------------------------|

And I [E]will be strong, even if it [B]all goes wrong
 
 e|------0-------------------------(2)--------------------------------------|
 B|------0--------------------------4---------------------------------------|
 G|------1--------------------------4---------------------------------------|
 D|------2--------------------------4---------------------------------------|
 A|------2--------------------------2---------------------------------------|
 E|------0--------------------------X---------------------------------------|

When I'm [C#m]standing in the [B]dark I'll still [F#]believe
 
 e|---------4--------------(2)--------------2-------------------------------|
 B|---------5---------------4---------------2-------------------------------|
 G|---------6---------------4---------------3-------------------------------|
 D|---------6---------------4---------------4-------------------------------|
 A|---------4---------------2---------------4-------------------------------|
 E|---------X---------------X---------------2-------------------------------|

[Am9]Someone's watching [B]over [E]me
 
 e|-0----------------(2)---0------------------------------------------------|
 B|-0-----------------4----0------------------------------------------------|
 G|-2-----------------4----1------------------------------------------------|
 D|-2-----------------4----2------------------------------------------------|
 A|-0-----------------2----2------------------------------------------------|
 E|-X-----------------X----0------------------------------------------------|

Bridge:
It doesn't matter what [C#m]people say
 
 e|---------------------4---------------------------------------------------|
 B|---------------------5---------------------------------------------------|
 G|---------------------6---------------------------------------------------|
 D|---------------------6---------------------------------------------------|
 A|---------------------4---------------------------------------------------|
 E|---------------------X---------------------------------------------------|

And it doesn't matter how [B]long it takes
 
 e|-------------------------2-----------------------------------------------|
 B|-------------------------4-----------------------------------------------|
 G|-------------------------4-----------------------------------------------|
 D|-------------------------4-----------------------------------------------|
 A|-------------------------2-----------------------------------------------|
 E|-------------------------X-----------------------------------------------|

For leaving yourself [Am9] and you'll find[B] [E]
 
 e|--------------------0------------------2--0------------------------------|
 B|--------------------0------------------4--0------------------------------|
 G|--------------------2------------------4--1------------------------------|
 D|--------------------2------------------4--2------------------------------|
 A|--------------------0------------------2--2------------------------------|
 E|--------------------X------------------X--0------------------------------|

And it only matters how [C#m]true you are
 
 e|-----------------------(4)-----------------------------------------------|
 B|------------------------5------------------------------------------------|
 G|------------------------6------------------------------------------------|
 D|------------------------6------------------------------------------------|
 A|------------------------4------------------------------------------------|
 E|------------------------X------------------------------------------------|

Be true to yourself and [B]follow your [Am9]heart
 
 e|------------------------2-----------0------------------------------------|
 B|------------------------4-----------0------------------------------------|
 G|------------------------4-----------2------------------------------------|
 D|------------------------4-----------2------------------------------------|
 A|------------------------2-----------0------------------------------------|
 E|------------------------X-----------X------------------------------------|

Chorus:
So I [E]won't give up, no I [B]won't break down
 
 e|-----0------------------(2)----------------------------------------------|
 B|-----0-------------------4-----------------------------------------------|
 G|-----1-------------------4-----------------------------------------------|
 D|-----2-------------------4-----------------------------------------------|
 A|-----2-------------------2-----------------------------------------------|
 E|-----0-------------------X-----------------------------------------------|

[C#m]Sooner than it [B]seems life [Am9]turns ar[B]ound
 
 e|-4------------(2)---------0------(2)-------------------------------------|
 B|-5-------------4----------0-------4--------------------------------------|
 G|-6-------------4----------2-------4--------------------------------------|
 D|-6-------------4----------2-------4--------------------------------------|
 A|-4-------------2----------0-------2--------------------------------------|
 E|-X-------------X----------X-------X--------------------------------------|

And I [E]will be strong, even if it [B]all goes wrong
 
 e|------0-------------------------(2)--------------------------------------|
 B|------0--------------------------4---------------------------------------|
 G|------1--------------------------4---------------------------------------|
 D|------2--------------------------4---------------------------------------|
 A|------2--------------------------2---------------------------------------|
 E|------0--------------------------X---------------------------------------|

When I'm [C#m]standing in the [B]dark I'll still [F#]believe
 
 e|---------4--------------(2)--------------2-------------------------------|
 B|---------5---------------4---------------2-------------------------------|
 G|---------6---------------4---------------3-------------------------------|
 D|---------6---------------4---------------4-------------------------------|
 A|---------4---------------2---------------4-------------------------------|
 E|---------X---------------X---------------2-------------------------------|

So I [E]won't give up, no I [B]won't break down
 
 e|-----0------------------(2)----------------------------------------------|
 B|-----0-------------------4-----------------------------------------------|
 G|-----1-------------------4-----------------------------------------------|
 D|-----2-------------------4-----------------------------------------------|
 A|-----2-------------------2-----------------------------------------------|
 E|-----0-------------------X-----------------------------------------------|

[C#m]Sooner than it [B]seems life [Am9]turns ar[B]ound
 
 e|-4------------(2)---------0------(2)-------------------------------------|
 B|-5-------------4----------0-------4--------------------------------------|
 G|-6-------------4----------2-------4--------------------------------------|
 D|-6-------------4----------2-------4--------------------------------------|
 A|-4-------------2----------0-------2--------------------------------------|
 E|-X-------------X----------X-------X--------------------------------------|

And I [E]will be strong, even if it [B]all goes wrong
 
 e|------0-------------------------(2)--------------------------------------|
 B|------0--------------------------4---------------------------------------|
 G|------1--------------------------4---------------------------------------|
 D|------2--------------------------4---------------------------------------|
 A|------2--------------------------2---------------------------------------|
 E|------0--------------------------X---------------------------------------|

When I'm [C#m]standing in the [B]dark I'll still [F#]believe
 
 e|---------4--------------(2)--------------2-------------------------------|
 B|---------5---------------4---------------2-------------------------------|
 G|---------6---------------4---------------3-------------------------------|
 D|---------6---------------4---------------4-------------------------------|
 A|---------4---------------2---------------4-------------------------------|
 E|---------X---------------X---------------2-------------------------------|

[Am9]Someone's watching [B]over [Am9]Someone's watching [B]over [Am9]Someone's watching[B] over[E] me
 
 e|-0----------------(2)---0-----------------(2)---0-----------------(2)---0|
 B|-0-----------------4----0------------------4----0------------------4----0|
 G|-2-----------------4----2------------------4----2------------------4----1|
 D|-2-----------------4----2------------------4----2------------------4----2|
 A|-0-----------------2----0------------------2----0------------------2----2|
 E|-X-----------------X----X------------------X----X------------------X----0|

[E]Yeah [C#m]Oh Oh [B]Someone's watching over me
 
 e|-0--------------4-----0------------(2)----------------------0------------|
 B|-0--------------5-----0-------------4-----------------------0------------|
 G|-1--------------6-----2-------------4-----------------------2------------|
 D|-2--------------6-----2-------------4-----------------------2------------|
 A|-2--------------4-----0-------------2-----------------------0------------|
 E|-0--------------X-----X-------------X-----------------------X------------|


Important: The song above is NOT stored on the Chordie server. The original song is hosted at www.azchords.com. Chordie works as a search engine and provides on-the-fly formatting. Chordie does not index songs against artists'/composers' will. To remove this song please click here.

Text color:
Chord color:
Chord grids: 
Font size:    
Page size: 

A A/B Am9 B C#m E F# F#m G#
Rate #2 of 9 versions

Login - add to songbook

SHARE PAGE  



You need to log in to post comments