Guitar Tabs, Chords and Lyrics
Major upgrade!! After one year development the new version of Chordie is now online! Please give feedback.


Devotion  Hillsong United

 
 ---------------

TUNING:
 
 ---------------

[E] [A] [D] [G] [B] [E]  
INTRO:
(KEYBOARD)
[VERSE] 
NC
 
 E|---------|
 B|-----12--|
 G|---------| 4x
 D|--12-----|
 A|---------|
 E|---------|
 E|--------------10------------------------------10----------------|
 B|-----10h12-10----12b(13)-12-10~~~----10h12-10----12b(13)r12~~~--|
 G|----------------------------------------------------------------|
 D|--12------------------------------12----------------------------|
 A|----------------------------------------------------------------|
 E|----------------------------------------------------------------|
 E|--------------10------------------------------10----------------|
 B|-----10h12-10----12b(13)-12-10~~~----10h12-10-------------------|
 G|----------------------------------------------------------------|
 D|--12------------------------------12----------------------------|
 A|----------------------------------------------------------------|
 E|----------------------------------------------------------------|

[PRECBORUS] 
[C-] [D-]  
 
 E|-----------------------------------------|
 B|-----------------------------------------|
 G|-----------------------------------------|
 D|--7\5/7/9-----9----7\5/7/9-------12------|
 A|--9\7/9/10-10------9\7/9/10-7L14-14------|
 E|-----------------------------------------|

[CBORUS] 
[G-] [Em-] [C-] [D-] [Em-]  
[INTERLUDE] 
[C-] [D-]  
 
 E|-----------------------------------------|
 B|-----------------------------------------|
 G|-----------------------------------------|
 D|--7\5/7/9-----9----7\5/7/9-------12------|
 A|--9\7/9/10-10------9\7/9/10-7L14-14------|
 E|-----------------------------------------|

[Em-] [Em-]  
 
 E|-----------------------------------------|
 B|-----------------------------------------|
 G|-----------------------------------------|
 D|--7\5/7/9-----9----7\5/7/9-------12------|
 A|--9\7/9/10-10------9\7/9/10-7L14-14------|
 E|-----------------------------------------|

[VERSE 2] 
 
 E|-------------------------------------------------|
 B|--12~~~-10------12----12---10------12------------|
 G|--------11-----------------11--------------------|
 D|--------12---12----12------12---12---------------|
 A|-------------------------------------------------|
 E|-------------------------------------------------|
 E|--------------10------------------------------10----------------|
 B|-----10h12-10----12b(13)-12-10~~~----10h12-10----12b(13)r12~~~--|
 G|----------------------------------------------------------------|
 D|--12------------------------------12----------------------------|
 A|----------------------------------------------------------------|
 E|----------------------------------------------------------------|

( 7x )
 
 E|--------------10-------------------------------10---------------|
 B|-----10h12-10----12b(13)-12-10~~~----10h12-10-----12------------|
 G|----------------------------------------------------------------|
 D|--12------------------------------12----------------------------|
 A|----------------------------------------------------------------|
 E|----------------------------------------------------------------|

[CBORUS] 
[G-] [Em-] [C-] [D-] [Em-]  
[SOLO] 
[C-] [D-] [Em-]  
 
 E|------------------------------------------7---7-8-7---7---7-8-7----7-|
 B|-----10-----10---------7-----7----------------------------------10---|
 G|---7------7------7---7-----7-----7-----------------------------------|
 D|-9------9------9---7-----7-----7---7/12\9---9-------9---9------------|
 A|---------------------------------------------------------------------|
 E|---------------------------------------------------------------------|

[C-] [D-] [Em-]  
 
 E|------------------------------------------7---7-8-7------------------|
 B|-----10-----10---------7-----7---------------------------------------|
 G|---7------7------7---7-----7-----7-----------------------------------|
 D|-9------9------9---7-----7-----7---7/12\9---9-------9----------------|
 A|---------------------------------------------------------------------|
 E|---------------------------------------------------------------------|

[Em-] [G-]  
 
 E|-10-----12------14----14-------15~~~-|
 B|-------------------------------------|
 G|----7L9----9L11----11----11L12-------|
 D|-------------------------------------|
 A|-------------------------------------|
 E|-------------------------------------|

[BRIDGE] 
(ACOUSTIC)
 
 E|--------------------------------------------------------------------|
 B|------12------12------12------12----------5-----5------5-----5------|
 G|---------0-------0-------0-------0----------0-----0------0-----0----|
 D|--------------------------------------------------------------------|
 A|-///10-----10------10------10------10\\\3-----3------3-----3-----3--|
 E|--------------------------------------------------------------------|
 E|--------------------------------------------------------------------|
 B|-----8-----8-----8-----8-------12--------7-----7---------5----5-----|
 G|-------0-----0-----0-----------------------0-----0---------0----0---|
 D|--------------------------------------------------------------------|
 A|-///7----7-----7-----7---7///10---10\\\5-----5-----5\\\3-----3----3-|
 E|--------------------------------------------------------------------|(REPEAT)

[CBORUS] 
[G-] [Em-] [C-] [D-] [Em-]  
[CODA] 
 
 E|-------------------------|
 B|---8-----10-----12-------|
 G|---9-----11-----12-------|
 D|---10----12-----12-------|TILL END.....
 A|-------------------------|
 E|-------------------------| 


Important: The song above is NOT stored on the Chordie server. The original song is hosted at www.azchords.com. Chordie works as a search engine and provides on-the-fly formatting. Chordie does not index songs against artists'/composers' will. To remove this song please click here.

Text color:
Chord color:
Chord grids: 
Font size:    
Page size: 

A B D E G
Rate #1 of 5 versions

Jango Player

Login - add to songbook

SHARE PAGE  




You need to log in to post comments