Guitar Tabs, Chords and Lyrics
Major upgrade!! After one year development the new version of Chordie is now online! Please give feedback.


Oceans (Where Feet May Fail)  Hillsong United

(Intro/Verse/Interlude/)
B (3x) C# (1x) D (4x) A (4x) G (4x)
 
 e|--------4-----|--------6-----|--------7-----|--------2-----|--------0-----||
 B|-----------0--|-----------0--|-----------0--|-----------0--|-----------0--||
 G|--------------|--------------|--------------|--------------|--------------||
 D|--------------|--------------|--------------|--------------|--------------||
 A|--------------|--------------|--------------|--------------|--------------||
 E|--4--4--------|--6--6--------|--7--7--------|--2--2--------|--0--0--------||

repeat throughout verse
(Chorus)
G (2x) D (2x) A (4x)
 
 e|--------0-----|--------7-----|--------2-----||
 B|-----------0--|-----------0--|-----------0--||
 G|--------------|--------------|--------------||
 D|--------------|--------------|--------------||
 A|--------------|--------------|--------------||
 E|--0--0--------|--7--7--------|--2--2--------||

repeat throughout chorus
(Bridge)
strum in 4/4 count
[Bm] [D] [A] [A2] [E]  
 
 e|--------------------------------------4------||
 B|--------------------------------------5------||
 G|--4--------4--------4--------3--------6------||
 D|--4--------4--------4--------4--------6------||
 A|--x--------2--------2--------4--------4------||
 E|--4--------x--------2--------2--------4------||

4beats 4beats 2beats 2beats 4beats
repeat throughout bridge
Final chorus/Outro (strumming)
[G] I will [D]call upon your [A]name
[G] And keep my [D]eyes above the [A]waves
When oceans rise[G]
My [D]soul will rest in your em[A]brace
[G] [A] [B] [C#] [D] [G]  
 
 e|--------------0---|--2-------4---|--6--7-------||
 B|----------------0-|--------------|-------------||
 G|------------------|--------------|----------1--||
 D|------------------|--------------|----------2--||
 A|------------------|--------------|----------2--||
 E|----------0-0-----|--2-------4---|--6--7-------||

For I am Yours, and You are mine.

Important: The song above is NOT stored on the Chordie server. The original song is hosted at www.azchords.com. Chordie works as a search engine and provides on-the-fly formatting. Chordie does not index songs against artists'/composers' will. To remove this song please click here.

Text color:
Chord color:
Chord grids: 
Font size:    
Page size: 

A A2 B Bm C# D E G
Rate #1 of 12 versions

Login - add to songbook

SHARE PAGE  




You need to log in to post comments