Guitar Tabs, Chords and Lyrics
Major upgrade!! After one year development the new version of Chordie is now online! Please give feedback.


Solution  Hillsong United

 
 -------------------------------------------------------------------------------

Solution - Hillsong United
 
 -------------------------------------------------------------------------------

Tuning: Standard E
(Intro)
 
 e|---------------------------------|-----------------------------------------|
 B|---------------------------------|-----------------------------------------|
 G|-------9-9-9-8-8-------8-8-8-6---|-----------------------------------------|
 D|-6---6-------------------------9-|-----8x------------------------------------|
 A|---9-------------9-9-9-----------|-----------------------------------------|
 E|---------------------------------|-----------------------------------------|

Riff 1(hey now...)
 
 e|----------14------------14------------14----12-12-11-11-----------------|
 B|-12-11-12------12-11-12------12-11-12-------------------14-14-11-11-----|
 G|------------------------------------------------------------------------|2x
 D|------------------------------------------------------------------------|
 A|------------------------------------------------------------------------|
 E|------------------------------------------------------------------------|

(back to intro)
Riff 2 (Use Delay set at 300ms)
 
 e|---------------------------------------------------------------------------|
 B|---------------------------------------------------------------------------|
 G|---------------------------------------------------------------------------|
 D|---------------------------------------------------------------------------|
 A|---------------------------------------------------------------------------|
 E|--7-7-7-7-7-7-7-2-2-2-2-2-2-2-12-12-12-12-12-12-12-12-12-12-12-12-12-12----|

Riff 1(hey now...)
 
 e|----------14------------14------------14----12-12-11-11-----------------|
 B|-12-11-12------12-11-12------12-11-12-------------------14-14-11-11-----|
 G|------------------------------------------------------------------------|2x
 D|------------------------------------------------------------------------|
 A|------------------------------------------------------------------------|
 E|------------------------------------------------------------------------|

Chorus (just chords)
 
 e|---------------------------------------------------------------------------|
 B|---------------------------------------------------------------------------|
 G|--1---4--------1-----------6-----------------------------------------------|
 D|--2---4---4----2---6---4---6-----------------------------------------------|
 A|--2---2---4----2---6---4---4-----------------------------------------------|
 E|--0-------2----0---4---2---------------------------------------------------|

Intr[E]o[B] [F#] [E] [G#] [F#] [C#]
Riff2
Riff1
Chorus2x
Solo
 
 e|---------------------------------------------------------------------------|
 B|---------------------------------------------------------------------------|
 G|----------11------11-13-15-15-15-13-11-13----------------------------------|
 D|-13-13-13------13----------------------------------------------------------|
 A|---------------------------------------------------------------------------|
 E|---------------------------------------------------------------------------|
 e|---------------------------------------------------------------------------|
 B|------------------------14-14-14-12-12-12-11-11----------------------------|
 G|----------11------11-13----------------------------------------------------|
 D|-13-13-13------13----------------------------------------------------------|
 A|---------------------------------------------------------------------------|
 E|---------------------------------------------------------------------------|
 e|---------------------------------------------------------------------------|
 B|---------------------------------------------------------------------------|
 G|----------11------11-13-15-15-15-13-11-13----------------------------------|
 D|-13-13-13------13----------------------------------------------------------|
 A|---------------------------------------------------------------------------|
 E|---------------------------------------------------------------------------|
 e|------------------------------------------------14-14-14-12-12-12/17-16----|
 B|------------------------14-14-14-12-12-12-11-11----------------------------|
 G|----------11------11-13----------------------------------------------------|
 D|-13-13-13------13----------------------------------------------------------|
 A|---------------------------------------------------------------------------|
 E|---------------------------------------------------------------------------|

Riff 3 (Only you can mend the Broken Heart...)
 
 e|-11-------9-------11-------12----------------------------------------------|
 B|----12------12-------12-------12-------------------------------------------|
 G|-------11------11-------11-------11-------(repeat throughout Bridge)------|
 D|---------------------------------------------------------------------------|
 A|---------------------------------------------------------------------------|
 E|---------------------------------------------------------------------------|

Chorus 2x
Solo
| / slide up
| \ slide down
| h hammer-on
| p pull-off
| ~ vibrato
| + harmonic
| x Mute note
===============================================================================

Important: The song above is NOT stored on the Chordie server. The original song is hosted at www.azchords.com. Chordie works as a search engine and provides on-the-fly formatting. Chordie does not index songs against artists'/composers' will. To remove this song please click here.

Text color:
Chord color:
Chord grids: 
Font size:    
Page size: 

B C# E F# G#
Rate #1 of 11 versions

Jango Player

Login - add to songbook

SHARE PAGE  




You need to log in to post comments