Guitar Tabs, Chords and Lyrics
Major upgrade!! After one year development the new version of Chordie is now online! Please give feedback.


Touch the Sky  Hillsong United

[Intro] 
[A]  
 
 e|-------------------------------------|
 B|---------0---------------0-----------|
 G|-----6-------6---6---6-------6---6---|
 D|-------7---7---7-------7---7---7-----|
 A|---0---------------0-----------------|
 E|-------------------------------------| (x2)

[F#m]  
 
 e|-------------------------------------|
 B|---------0---------------0-----------|
 G|-----6-------6---6---6-------6---6---|
 D|-------7---7---7-------7---7---7-----|
 A|---9---------------9-----------------|
 E|-------------------------------------| (x2)

[Verse 1] (same as intro)
[A]  
 
 e|-------------------------------------|
 B|---------0---------------0-----------|
 G|-----6-------6---6---6-------6---6---|
 D|-------7---7---7-------7---7---7-----|
 A|---0---------------0-----------------|
 E|-------------------------------------| (x2)

[F#m]  
 
 e|-------------------------------------|
 B|---------0---------------0-----------|
 G|-----6-------6---6---6-------6---6---|
 D|-------7---7---7-------7---7---7-----|
 A|---9---------------9-----------------|
 E|-------------------------------------| (x2)

[Cborus] 
[D]  
 
 e|---------------------------------------------------------------------------|
 B|---------3---------------2---------------3---------------2-----------------|
 G|-----2-------2---2---2-------2---2---2-------2---2---2-------2---2---------|
 D|---0---0---0---0---0---0---0---0---0---0---0---0---0---0---0---0-----------|
 A|---------------------------------------------------------------------------|
 E|---------------------------------------------------------------------------|

[F#m]  
 
 e|-------------------------------------|
 B|---------0-------0-------0-------0---|
 G|-----2-------2-------2-------2-------|
 D|-------2---2---2---2---2---2---2-----|
 A|-------------------------------------|
 E|---2---------------------------------| (x2)

[D]  
 
 e|---------------------------------------------------------------------------|
 B|---------3---------------2---------------3---------------2-----------------|
 G|-----2-------2---2---2-------2---2---2-------2---2---2-------2---2---------|
 D|---0---0---0---0---0---0---0---0---0---0---0---0---0---0---0---0-----------|
 A|---------------------------------------------------------------------------|
 E|---------------------------------------------------------------------------|

F#m E (strum with thumb)
 
 e|------------------------------------------|
 B|---------0-------0-------0-------0--------|
 G|-----2-------2-------2-------2------------|
 D|-------2---2---2---2---2---2---2------2---|
 A|--------------------------------------2---|
 E|---2----------------------------------0---|

[Instrumental] 
Guitar 1b (capo 2):
[G]  
 
 e|-------------------------------------|
 B|---------3-------3-------3-------3---|
 G|-----0-------0-------0-------0-------|
 D|-------0---0---0---0---0---0---0-----|
 A|-------------------------------------|
 E|---3---------------------------------| (x2)

[Em7]  
 
 e|-------------------------------------|
 B|---------3-------3-------3-------3---|
 G|-----0-------0-------0-------0-------|
 D|-------0---0---0---0---0---0---0-----|
 A|-------------------------------------|
 E|---0---------------------------------| (x2)

Guitar 2 (capo 2):
 
 e|-------------------------------------|
 B|---------0---------------------------|
 G|-------------------------------------|
 D|---5/7-------------------------------|
 A|-------------------------------------|
 E|-------------------------------------| (x4)

[Verse 2] 
Guitar 1b (capo 2):
[G]  
 
 e|---------0---------------------------|
 B|-------------3-----------3-------3---|
 G|-----0-----------0---0-------0-------|
 D|-------0---0---0---0---0---0---0-----|
 A|-------------------------------------|
 E|---3---------------------------------| (x2) 

[Em7]  
 
 e|---------0---------------------------|
 B|-------------3-----------3-------3---|
 G|-----0-----------0---0-------0-------|
 D|-------0---0---0---0---0---0---0-----|
 A|-------------------------------------|
 E|---0---------------------------------| (x2)

Guitar 2 (capo 2):
 
 e|-------------------------------------|
 B|---------0---------------------------|
 G|-------------------------------------|
 D|---5/7-------------------------------|
 A|-------------------------------------|
 E|-------------------------------------| (x4)

[Cborus] 
Guitar 1b (capo 2):
[C]  
 
 e|---------0---------------------------|
 B|---------3---3-----------3-------3---|
 G|-----0-----------0---0-------0-------|
 D|-------0---0---0---0---0---0---0-----|
 A|---3---------------------------------|
 E|-------------------------------------| (x2)

[G] [Em7]  
 
 e|---------0-----------------------------------0---------------------------|
 B|-------------3-----------3-------3---------------3-----------3-------3---|
 G|-----0-----------0---0-------0-----------0-----------0---0-------0-------|
 D|-------0---0---0---0---0---0---0-----------0---0---0---0---0---0---0-----|
 A|-------------------------------------------------------------------------|
 E|---3-----------------------------------0---------------------------------|

[C]  
 
 e|---------0---------------------------|
 B|---------3---3-----------3-------3---|
 G|-----0-----------0---0-------0-------|
 D|-------0---0---0---0---0---0---0-----|
 A|---3---------------------------------|
 E|-------------------------------------| (x2)

[Em7] [D]  
 
 e|---------0-----------------------------------0--------------------------------------|
 B|-------------3-----------3-------3---------------3-----------3-------3----------3---|
 G|-----0-----------0---0-------0-----------0-----------0---0-------0------------2-----|
 D|-------0---0---0---0---0---0---0-----------0---0---0---0---0---0---0-------0--------|
 A|------------------------------------------------------------------------------------|
 E|---0-----------------------------------0--------------------------------------------|

Guitar 2:
Nothing. Switch to capo 5
[Bridge] 
Guitar 1b (capo 2):
Strumming
[G] [Am7] [Em7] [C]  
 
 e|---3-----3-----3-----3---|
 B|---3-----3-----3-----3---|
 G|---0-----0-----0-----0---|
 D|---0-----2-----2-----0---|
 A|---x-----0-----2-----3---|
 E|---3-----x-----0-----x---|

Guitar 2 (capo 5)
[E] [F#m] [C#m] [A]  
 
 e|---0-----0-----0-----0---|
 B|---0-----0-----0-----0---|
 G|---1-----2-----6-----2---|
 D|---2-----4-----6-----2---|
 A|---2-----4-----4-----0---|
 E|---0-----x-----x-----x---| 


Important: The song above is NOT stored on the Chordie server. The original song is hosted at www.azchords.com. Chordie works as a search engine and provides on-the-fly formatting. Chordie does not index songs against artists'/composers' will. To remove this song please click here.

Text color:
Chord color:
Chord grids: 
Font size:    
Page size: 

A Am7 C C#m D E Em7 F#m G
Rate #1 of 2 versions

Jango Player

Login - add to songbook

SHARE PAGE  



You need to log in to post comments