Guitar Tabs, Chords and Lyrics
Major upgrade!! After one year development the new version of Chordie is now online! Please give feedback.


Wonder   Hillsong United

 
 e|----------------------|-----------------------------------------------------|
 B|--3---3---3---3-s-5---|-0---0---0---0---0-----------------------------------|
 G|----0---0---0---0---0-|---0---0---0---0---0---------------------------------|
 D|----------------------|-----------------------------------------------------|
 A|----------------------|-----------------------------------------------------|
 E|----------------------|-----------------------------------------------------|

 


 


 [Cborus] 


 

 
 e|--3--3--3-------------------------------------------------------------------|
 B|--3--5--0-------------------------------------------------------------------|
 G|--0--0--0-------------------------------------------------------------------|
 D|--X--X--X-------------------------------------------------------------------|
 A|--X--X--X-------------------------------------------------------------------|
 E|--X--X--X-------------------------------------------------------------------|

 


 


 [Verse 2] 


 

 
 e|--3--3--3------3--3--3------------------------------------------------------|
 B|--3--3--3------3--3--1------------------------------------------------------|
 G|--0--0--0------0--0--0------------------------------------------------------|
 D|--X--X--X------2--X--X------------------------------------------------------|
 A|--X--X--X------X--X--X------------------------------------------------------|
 E|--X--X--X------X--X--X------------------------------------------------------|

 


 


 [Cborus] 


 

 
 e|--3--3--3-------------------------------------------------------------------|
 B|--3--5--0-------------------------------------------------------------------|
 G|--0--0--0-------------------------------------------------------------------|
 D|--X--X--X-------------------------------------------------------------------|
 A|--X--X--X-------------------------------------------------------------------|
 E|--X--X--X-------------------------------------------------------------------|

 


 


 [Post-Cborus] 


 

 
 e|--------------------|-------------------------------------------------------|
 B|--12p11----11-------|-------------------------------------------------------|
 G|--------13----13-11-|-------------------------------------------------------|
 D|--------------------|-13~----13-13h14-13------------------------------------|
 A|--------------------|-------------------------------------------------------|
 E|--------------------|-------------------------------------------------------|

 


 


 [Instrumental/Bridge] 


 

 
 e|----------------------|-----------------------------------------------------|
 B|-----3-----3-----3--1-|-0--------0-----0-----0-----0h1-0--------------------|
 G|--0-----0-----0-------|-------0-----0-----0-----0---------------------------|
 D|----------------------|-----------------------------------------------------|
 A|----------------------|-----------------------------------------------------|
 E|----------------------|-----------------------------------------------------| 


Important: The song above is NOT stored on the Chordie server. The original song is hosted at www.azchords.com. Chordie works as a search engine and provides on-the-fly formatting. Chordie does not index songs against artists'/composers' will. To remove this song please click here.

This song is displayed as text-only. Transposing and tuning is only available for chordpro-songs.
Rate #1 of 3 versions

Jango Player

Login - add to songbook

SHARE PAGE  



You need to log in to post comments