Guitar Tabs, Chords and Lyrics
Server problems seems to be fixed. Chordie has been experiencing problems with songs disappearing. These issues now seems to be fixed, but still verifying the fix. If you find anything strange, please email admin@chordie.com.


A Girl in Glass   Himsa

 
 D|-------------------------------------------------------------|
 A|-------------------------------------------------------------|
 F|-1212-1212-1212-1212-121212/1414-1414-1414-1414-141414/1515--|
 C|-1010-1010-1010-1010-101010/1212-1212-1212-1212-121212/1313--|
 G|-1010-1010-1010-1010-101010/1212-1212-1212-1212-121212/1313--|
 C|-1010-1010-1010-1010-101010/1212-1212-1212-1212-121212/1313--|
 D|--------------------------------------------------------| last time
 A|--------------------------------------------------------|
 F|-1515-1515-1515-151515/1616-1616-1414-1414-14/15-15\12--| |--5---------|
 C|-1313-1313-1313-131313/1515-1515-1212-1212-12/13-13\10--| |--5---7~~ --|
 G|-1313-1313-1313-131313/1515-1515-1212-1212-12/13-13\10--| |--3---------|
 C|-1313-1313-1313-131313/1515-1515-1212-1212-12/13-13\10--| X2 |------------|

 


 


 Guitar 2 (1st time)


 

 
 D|-------------------------------------------------------------|
 A|-------------------------------------------------------------|
 F|-1212----------------121212/1414----------------141414/1515--|
 C|-1010----------------101010/1212----------------121212/1313--|
 G|-1010----------------101010/1212----------------121212/1313--|
 C|-1010----------------101010/1212----------------121212/1313--|
 D|---------------------------------|
 A|---------------------------------|
 F|----------------151515/1616-1616-| |--5--|
 C|----------------131313/1515-1515-| |--5--|
 G|----------------131313/1515-1515-| |--3--|
 C|----------------131313/1515-1515-| |-----|

 


 


 


 PART 2 (0:25) Both Guitars, Guitar 2 in parenthesis. (Play on C sting, not on the F)


 

 
 D|------------------------------------------------------------------------------------------------------|
 A|------------------------------------------------------------------------------------------------------|
 F|---------------------( 5-3p0h3~)-----------------( 5-3p0h1~)-----------------( 3p0 )------------------|
 C|-5-555-555-555-555-555-8p7\5h7-333-333-333-333-333-8p7\3h5-111-111-111-111-111-8p7-1-111-111-80807h8--|
 G|-5-555-555-555-555-555---------333-333-333-333-333---------111-111-111-111-111-----1-111-111-80807h8--|
 C|-5-555-555-555-555-555---------333-333-333-333-333---------111-111-111-111-111-----1-111-111-80807h8--| x2

 


 pm ... ... ... ... ... ... ... ... ... ... ... ... ... ... ... ... ... ....


 


 


 PART 3 (0:47) Both Guitars 1st time


 


 (this part is a little crazy, liten to the song for the rhythm)


 


 

 
 D|-----------------------------------------------------------------------|
 A|-----------------------------------------------------------------------|
 F|-----------------------------------------------------------------------|
 C|-----------------------------------------------------------------------|
 G|-----------------7----------------07-----------------7------------7----|
 C|-0000000000000000-0000000000000000--88888888888888888-77777777777--87--| x2

 


 


 Guitar 2 (2nd time)


 

 
 D|------------------------------------------------------|
 A|------------------------------------------------------|
 F|------------------------------------------------------|
 C|--7~ 5h7p5\3~ -5-7-5/8--8h10p8\7~ -5h7p5\3~ -5-7-5/8--|
 G|------------------------------------------------------|
 C|------------------------------------------------------|

 


 


 


 Back to Part 2 (1:09)


 


 


 Part 4 (1:31)


 


 Guitar 1


 

 
 D|-----------------------------------------------------|
 A|-----------------------------------------------------|
 F|-----------------3-------2---------------------------|
 C|-1-------3-------3-------2-------1-------3-------5---|
 G|-1-------3-------1-------0-------1-------3-------5---|
 C|-1-------3-----------------------1-------3-------5---| x2

 


 


 Guitar 2


 


 

 
 D|--------------------------|
 A|--------------------------|
 F|--7-8-10--5-7-8\7-5h7-5-3-| not sure about this
 C|--------------------------|
 G|--------------------------|
 C|--------------------------| x4

 


 


 Back to Part 3 (1:53)


 


 Part 5 (2:15)


 


 Both Guitars


 

 
 D|-------------------------------------------------------|
 A|-------------------------------------------------------|
 F|-7---------7/10--------12----------12\10---------------|
 C|-7-000000--7/10-0000---12-888888---12\10-7777----8-7-5-|
 G|-5-000000--5/8--0000---10-888888---10\8--7777----8-7-5-|
 C|---000000-------0000------888888---------7777----8-7-5-| x2

 


 pm ...... .... ...... ....


 


 (2:36)


 

 
 D|---------------------------------------------------------|
 A|---------------------------------------------------------|
 F|-7-----------------------7/10-------------------------12-|
 C|-7-000-000-0-0x0x0-00-00-7/10-0-000-000-0-0x0x0-00-00-12-|
 G|-5-000-000-0-0x0x0-00-00-5/8--0-000-000-0-0x0x0-00-00-10-|
 C|---000-000-0-0x0x0-00-00------0-000-000-0-0x0x0-00-00----|

 


 pm ... ... . . .. ... ... . . ..


 


 

 
 D|---------------------------------------------------|
 A|---------------------------------------------------|
 F|-------------------------12\10---------------------|
 C|-8-888-888-8-8x8x8-88-88-12\10-7-777-777-7--8-7-5--|
 G|-8-888-888-8-8x8x8-88-88-10\8--7-777-777-7--8-7-5--|
 C|-8-888-888-8-8x8x8-88-88-------7-777-777-7--8-7-5--| x2


Important: The song above is NOT stored on the Chordie server. The original song is hosted at www.azchords.com. Chordie works as a search engine and provides on-the-fly formatting. Chordie does not index songs against artists'/composers' will. To remove this song please click here.

This song is displayed as text-only. Transposing and tuning is only available for chordpro-songs.
Rate #1 of 1 versions

Login - add to songbook

SHARE PAGE  



You need to log in to post comments