Guitar Tabs, Chords and Lyrics
Server problems seems to be fixed. Chordie has been experiencing problems with songs disappearing. These issues now seems to be fixed, but still verifying the fix. If you find anything strange, please email admin@chordie.com.


If You Are To Bloom   Hum

 
 E|11---11--11----------11---11--11--11--11/16--16--16--16--16-|
 B|11---11--11----------11---11--11--11--11/16--16--16--16--16-|
 G|11---11--11--X-X-X-X-11---11--11--11--11/16--16--16--16--16-|
 D|-9----9---9--X-X-X-X--9----9---9---9---9/14--14--14--14--14-|
 A|-9----9---9--X-X-X-X--9----9---9---9---9/14--14--14--14--14-|
 D|-9----9---9--X-X-X-X--9----9---9---9---9/14--14--14--14--14-|
 E|-16--16--16--16---14--14---14---11-11-----6-6-6-6--4-|
 B|-16--16--16--16---14--14---14---11-11-----6-6-6-6--4-|
 G|-16--16--16--16---14--14---14-X-11-11-X-X-6-6-6-6--4-|
 D|-14--14--14--14---12--12---12-X--9--9-X-X-4-4-4-4--2-|
 A|-14--14--14--14---12--12---12-X--9--9-X-X-4-4-4-4--2-|
 D|-14--14--14--14---12--12---12-X--9--9-X-X-4-4-4-4--2-|

 


 * Guitar 2 comes in here.


 


 Guitar 2, distorted


 


 

 
 E|-14--14---14---11-11-----6-6-6-6--4-|
 B|-14--14---14---11-11-----6-6-6-6--4-|
 G|-14--14---14-X-11-11-X-X-6-6-6-6--4-|
 D|-12--12---12-X--9--9-X-X-4-4-4-4--2-|
 A|-12--12---12-X--9--9-X-X-4-4-4-4--2-|
 D|-12--12---12-X--9--9-X-X-4-4-4-4--2-|

 


 


 Verse


 [-----]Guitar 1, distorted


 


 

 
 E|-4---4---4-4-4---4-4---4-4---4---4---4-4-4---4-4---4-4-|
 B|-4---4---4-4-4---4-4---4-4---4---4---4-4-4---4-4---4-4-|
 G|-4---4---4-4-4---4-4---4-4---4---4---4-4-4---4-4---4-4-|
 D|-2---2---2-2-2---2-2---2-2---2---2---2-2-2---2-2---2-2-|
 A|-2---2---2-2-2---2-2---2-2---2---2---2-2-2---2-2---2-2-|
 D|-2---2---2-2-2---2-2---2-2---2---2---2-2-2---2-2---2-2-|
 E|-4---------------------------------------4-------------|
 B|-4-------------------------------------------4---------|
 G|-4-----------------------------------------------4-----|
 D|-2-----------------------------------------------------|
 A|-2-----------------------------------------------------|
 D|-2-----------------------------------------------------|

 


 * Let ring ~~~~~~~~~~~~~~~~~~~~~~~~~~~~~


 


 Guitar 2, distorted - play this stuff over guitar 1's rythm


 


 

 
 E|--------------0--0-0---0-0-----------------------------|
 B|-----0--------0--0-0---0-0-----------------------------|
 G|-----6------4----4-4---4-4-----------------------------|
 D|-----6-----------4-4---4-4-----6------6-6/4--4---4/6-6-|
 A|-6---------------4-4---4-4-----------------------------|
 D|----------------------------6-----6-6------4---4-------|
 E|----------------------------9-----9--------9-----9--9--|
 B|-------------------7----7-----7-----7--------7----7--8-|
 G|-9--8----------------8----8-----8-----8--8-----8---8---|
 D|-------------------------------------------------------|
 A|-------------------------------------------------------|
 D|-------------------------------------------------------|

 


 


 Guitar 1, distorted


 "I'm thinking of your wide open eyes..."


 

 
 E|-4---4---4-4-4---4-4---4-4---4---4---4-4-4---4-4---4-4-|
 B|-4---4---4-4-4---4-4---4-4---4---4---4-4-4---4-4---4-4-|
 G|-4---4---4-4-4---4-4---4-4---4---4---4-4-4---4-4---4-4-|
 D|-2---2---2-2-2---2-2---2-2---2---2---2-2-2---2-2---2-2-|
 A|-2---2---2-2-2---2-2---2-2---2---2---2-2-2---2-2---2-2-|
 D|-2---2---2-2-2---2-2---2-2---2---2---2-2-2---2-2---2-2-|
 E|-4---4---4-4-4-----------------------------------------------------|
 B|-4---4---4-4-4-----------------------------------------------------|
 G|-4---4---4-4-4--1h2p1----------------------------------------------|
 D|-2---2---2-2-2--------4--2-2-1h2p1---------------------------------|
 A|-2---2---2-2-2---------------------4--4-2--2-4-4-2-4/2-2/4-4-6-4-2-|
 D|-2---2---2-2-2-----------------------------------------------------|

 


 


 Guitar 2, distorted - play this over guitar 1's rythm


 


 "I'm thinking of your wide open eyes..."


 

 
 E|--------------0--0-0---0-0-----------------------------|
 B|-----0--------0--0-0---0-0-----------------------------|
 G|-----6------4----4-4---4-4-----------------------------|
 D|-----6-----------4-4---4-4-----6------6-6/4--4---4/6-6-|
 A|-6---------------4-4---4-4-----------------------------|
 D|----------------------------6-----6-6------4---4-------|
 E|-------------------------------------------------------------------|
 B|-------------------------------------------------------------------|
 G|-9--8------8-8--1h2p1----------------------------------------------|
 D|----------------------4--2-2-1h2p1---------------------------------|
 A|-------7-7-------------------------4--4-2--2-4-4-2---------2-4-4-2-|
 D|---------------------------------------------------4-6-6-4---------|

 


 


 Bridge


 

 
 ------

 


 Guitar 1, distorted


 


 "Dream on..."


 

 
 E|-4---4---4-4-4---4-4---4-4---4---4---4-4-4---4-4---4-4-|
 B|-4---4---4-4-4---4-4---4-4---4---4---4-4-4---4-4---4-4-|
 G|-4---4---4-4-4---4-4---4-4---4---4---4-4-4---4-4---4-4-|
 D|-2---2---2-2-2---2-2---2-2---2---2---2-2-2---2-2---2-2-|
 A|-2---2---2-2-2---2-2---2-2---2---2---2-2-2---2-2---2-2-|
 D|-2---2---2-2-2---2-2---2-2---2---2---2-2-2---2-2---2-2-|
 E|-4---4---4-4-4---4-4---4-4-14--14---14---11-11-----6-6-6-6--4-|
 B|-4---4---4-4-4---4-4---4-4-14--14---14---11-11-----6-6-6-6--4-|
 G|-4---4---4-4-4---4-4---4-4-14--14---14-X-11-11-X-X-6-6-6-6--4-|
 D|-2---2---2-2-2---2-2---2-2-12--12---12-X--9--9-X-X-4-4-4-4--2-|
 A|-2---2---2-2-2---2-2---2-2-12--12---12-X--9--9-X-X-4-4-4-4--2-|
 D|-2---2---2-2-2---2-2---2-2-12--12---12-X--9--9-X-X-4-4-4-4--2-|

 


 


 Guitar 2, clean


 


 "Dream on..."


 

 
 E|--------0-------------0-----------0--------------0-----|
 B|----------9-------------9-----------9-7------------9---|
 G|------8-----8-------8-----8--------------------8-----8-|
 D|----9-------------9-------------9------------9---------|
 A|-------------------------------------------------------|
 D|-------------------------------------------------------|
 E|--------0-----------0------14--14---14---11-11-----6-6-6-6--4-|
 B|----------9-----------9-7--14--14---14---11-11-----6-6-6-6--4-|
 G|------8-----8--------------14--14---14-X-11-11-X-X-6-6-6-6--4-|
 D|----9-------------9--------12--12---12-X--9--9-X-X-4-4-4-4--2-|
 A|---------------------------12--12---12-X--9--9-X-X-4-4-4-4--2-|
 D|---------------------------12--12---12-X--9--9-X-X-4-4-4-4--2-|

 


 * Kick in distortion here


 


 Chorus


 

 
 ------

 


 Guitar 1, distorted


 


 "I dreamt of jet-less hives..."


 

 
 E|11---11--11----------11---11--11---------------4--4--4--4-4-4-|
 B|11---11--11----------11---11--11---------------4--4--4--4-4-4-|
 G|11---11--11--X-X-X-X-11---11--11--X-X-X-X-X-X--4--4--4--4-4-4-|
 D|-9----9---9--X-X-X-X--9----9---9--X-X-X-X-X-X--2--2--2--2-2-2-|
 A|-9----9---9--X-X-X-X--9----9---9--X-X-X-X-X-X--2--2--2--2-2-2-|
 D|-9----9---9--X-X-X-X--9----9---9--X-X-X-X-X-X--2--2--2--2-2-2-|
 E|-4--4--4-4-4--4--4--4-4-4--4--4--4-4-4/| Play this rythm 3 times.
 B|-4--4--4-4-4--4--4--4-4-4--4--4--4-4-4/|
 G|-4--4--4-4-4--4--4--4-4-4--4--4--4-4-4/|
 D|-2--2--2-2-2--2--2--2-2-2--2--2--2-2-2/|
 A|-2--2--2-2-2--2--2--2-2-2--2--2--2-2-2/|
 D|-2--2--2-2-2--2--2--2-2-2--2--2--2-2-2/|

 


 


 The 4th time play this:


 "And you, you, need watering if you are to bloom..."


 

 
 E|11---11--11----------11---11--11---------------4--4--4--4-4-4-|
 B|11---11--11----------11---11--11---------------4--4--4--4-4-4-|
 G|11---11--11--X-X-X-X-11---11--11--X-X-X-X-X-X--4--4--4--4-4-4-|
 D|-9----9---9--X-X-X-X--9----9---9--X-X-X-X-X-X--2--2--2--2-2-2-|
 A|-9----9---9--X-X-X-X--9----9---9--X-X-X-X-X-X--2--2--2--2-2-2-|
 D|-9----9---9--X-X-X-X--9----9---9--X-X-X-X-X-X--2--2--2--2-2-2-|
 E|-4--4--4-4-14--14---14---11-11-----6-6-6-6--4-|
 B|-4--4--4-4-14--14---14---11-11-----6-6-6-6--4-|
 G|-4--4--4-4-14--14---14-X-11-11-X-X-6-6-6-6--4-|
 D|-2--2--2-2-12--12---12-X--9--9-X-X-4-4-4-4--2-|
 A|-2--2--2-2-12--12---12-X--9--9-X-X-4-4-4-4--2-|
 D|-2--2--2-2-12--12---12-X--9--9-X-X-4-4-4-4--2-|

 


 


 Guitar 2, distorted - play this stuff over guitar 1's rythm


 


 "I dreamt of jet-less hives..."


 

 
 E|------------------------------------------------------------|
 B|------------------------------------------------------------|
 G|-------------X-X-X-X--------------X-X-X-X-X-X------3h-4p-3--|
 D|-------------X-X-X-X--------------X-X-X-X-X-X---------------|
 A|-------------X-X-X-X--------------X-X-X-X-X-X---------------|
 D|-------------X-X-X-X--------------X-X-X-X-X-X---------------|

 


 bend


 

 
 E|---------------------------------^^-------------------------|
 B|---------------------7---9---12--14---14-------12--12--12---|
 G|-3h-4p-3---6----9----X---X----X---X-------13-13--13--13--13-|
 D|-----------X----X----4---6----9--11-------------------------|
 A|-----------4----7-------------------------------------------|
 D|------------------------------------------------------------|
 E|--------------------------------------------------9---------|
 B|-11--11--11-------12--12--11--11----0-0---0-7---7-----------|
 G|---13--13----13-13--13--13--13-----6-6-6/7/8--8-------------|
 D|------------------------------------------------------------|
 A|------------------------------------------------------------|
 D|------------------------------------------------------------|
 E|------------------------------------------------------------|
 B|------12--12--12--11--11--11-------12--12--11--11----0-0----|
 G|-13-13--13--13--13--13--13----13-13--13--13--13-----6-6-6/7-|
 D|------------------------------------------------------------|
 A|------------------------------------------------------------|
 D|------------------------------------------------------------|
 E|--------9-----------9-----------9------------9-----14--14---|
 B|--7---7----------7----7------7----7-------7----7---14--14---|
 G|/8--8---------8-----------8------------9-----------14--14---|
 D|---------------------------------------------------12--12---|
 A|---------------------------------------------------12--12---|
 D|---------------------------------------------------12--12---|
 E|-14---11-11-----6-6-6-6--4-|
 B|-14---11-11-----6-6-6-6--4-|
 G|-14-X-11-11-X-X-6-6-6-6--4-|
 D|-12-X--9--9-X-X-4-4-4-4--2-|
 A|-12-X--9--9-X-X-4-4-4-4--2-|
 D|-12-X--9--9-X-X-4-4-4-4--2-|

 


 


 Verse, again


 


 Bridge, again


 


 Then this part


 

 
 --------------

 


 Guitar 1, distorted


 


 

 
 E|----------------------------------------|
 B|-7---7--7---7---7---7--7---7/9-9--7/9-9-|
 G|-6---6--6---6---6---6--6---6/8-8--6/8-8-|
 D|-4---4--4---4---4---4--4---4/6-6--4/6-6-|
 A|-4---4--4---4---4---4--4---4/6-6--4/6-6-|
 D|-4---4--4---4---4---4--4---4/6-6--4/6-6-|

 


 


 Guitar 2, clean - play this stuff over guitar 1's rythm


 

 
 E|---------------------------------------------------------|
 B|----2---2------5---5------7---7-----6---6----------------|
 G|-3----3-----3----3-----8----8----8----8---8-6----6-8-6-8-|
 D|-----------------------------------------------8---------|
 A|---------------------------------------------------------|
 D|---------------------------------------------------------|

 


 * *


 this part repeats the rest of the times


 


 Then end with the Chorus


 


 The rythms are not exact. E-mail me if you have any questions.


 Let me know what you think. Later...


 


 v3


 


 If you are to bloom- Hum


 


 Regular E- tuning /= slide up = slide down ^= pull-off


 


 Guitar 1-Matt Talbott (Acoustic beginning)


 


 *FIGURE 1


 

 
 E |---2---2---2---2-----x-x-x-----2---2--------------|
 B |---4---4---4---4-----x-x-x-----4---4--------------|
 G |-- 3---3---3---3-----x-x-x-----3---3-repeat-chord |
 D |---4---4---4---4-----x-x-x-----4---4------------- |
 A | --2---2---2---2-----x-x-x-----2---2------------- |
 E |---2---2---2---2-----x-x-x-----2---2------------- |
 |----7------------|
 |----9------------|
 |----8-repeat 7x--|
 |----9------------|
 |----7------------|
 |----7------------|

 


 distortion


 

 
 |-5----------2----------9--------| *FIGURE 2
 |-7----------4----------11-------|
 |-6----2x--- 3----2x--- 10--4x-- |
 |-7----------4----------11------ |
 |-5----------2----------9------- |
 |-5----------2----------9--------|

 


 


 


 


 MAIN RIFF


 


 Guitar 1-Matt Talbott- Right channel


 


 

 
 E |---7-7---7-7-7-7-----------|---------------------------|
 B |---9-9---9-9-9-9-----------|----------------9----------|
 G |---8-8---8-8-8-8---4x------|------------------8-----8--|
 D |---9-9---9-9-9-9-----------|-2-2-hold chord-----9--9---|
 A |---7-7---7-7-7-7-----------|-2-2------------------7----|
 E |---0-0---0-0-0-0-----------|-0-------------------------|

 


 


 


 Guitar 2- Tim Lash- Left channel


 


 

 
 E |---------4-4-4-4---------------------------------------------|
 B |---------4-4-4-4---------------------------------------------|
 G |---------4-4-4-4---------------------------------------------|
 D |---------6-6-6-6----------6-6------6-----6-6/4---4---4----6--|
 A |--6--4---4-4-4-4--4-4--4------4------------------------------|
 E |---------------------------------4---4-4-------2----2---4---4|
 E |---------------------9-------9-------9-----------------------|
 B |--------------7---7----7---7---7---7----repeat until verse---|
 G |----/9-8~~~-----8---------8-------8--------------------------|
 D |-------------------------------------------------------------|
 A |-------------------------------------------------------------|
 E |-------------------------------------------------------------|


Important: The song above is NOT stored on the Chordie server. The original song is hosted at www.azchords.com. Chordie works as a search engine and provides on-the-fly formatting. Chordie does not index songs against artists'/composers' will. To remove this song please click here.

This song is displayed as text-only. Transposing and tuning is only available for chordpro-songs.
Rate #1 of 1 versions

Login - add to songbook

SHARE PAGE  




You need to log in to post comments