Guitar Tabs, Chords and Lyrics
Server problems seems to be fixed. Chordie has been experiencing problems with songs disappearing. These issues now seems to be fixed, but still verifying the fix. If you find anything strange, please email admin@chordie.com.


Isle Of The Cheetah   Hum

 
 1------5--5------5--5------5--5---10--10--10------5--5------5--5------
 2------5--5------5--5------5--5---10--10--10------5--5------5--5------
 3------5--5------5--5------5--5---10--10--10------5--5------5--5------
 4-3--3------3--3------3--3------8------------3--3------3--3------3----
 5-3--3------3--3------3--3------8------------3--3------3--3------3-%--
 6-3--3------3--3------3--3------8------------3--3------3--3------3----

 


 |


 | guitar 2


 |


 

 
 1---------------------------------------------------------------------
 2------5--5------5--5------5--5---10--10--10------5--5------5--5------
 3------5--5------5--5------5--5---10--10--10------5--5------5--5------
 4-5--5-5--5-5--5-5--5-5--5-5--5-8-10--10--10-5--5-5--5-5--5-5--5-3----
 5-3--3------3--3------3--3------8------------3--3------3--3------3-%--
 6-3--3------3--3------3--3------8------------3--3------3--3------3----

 


 


 fill 1 - clean, later with distortion


 with bends at times


 


 

 
 3-5/(7)--7--7--7/(9)--9--9--
 4-x------x--x--x------x--x--
 5-3/(5)--5--5--5/(7)--7--7--

 


 |


 | guitar 2


 |


 

 
 3-3/(5)--7--7--5/(7)--7--7--
 4-x------x--x--x------x--x--
 5-3/(5)--5--5--3/(5)--5--5--

 


 


 fill 2


 


 [m] [m] [m] [m] [m] [m]  


 

 
 4-1--1--1--1--1--4--
 5-1--1--1--1--1--4--
 6-1--1--1--1--1--4-- 

 


 


 fill 3 - with bend at times


 


 [1-----]  


 [2-----]  


 [3-12--]4-x---


 5-10--


 [6-----]  


 fill 4


 


 guitar 1


 


 

 
 3-------------------5-----/(17)\--

 


 |


 | guitar 2


 |


 

 
 2-8-------------------------------
 3-----10--------10/(15)---/(22)\--
 4----------10---x-----------------
 5---------------8-/(13)---/(20)\--

 


 


 riff 2


 


 

 
 1-----------------14----------------------------------------
 2-----------------x-----------------------------------------
 3---------12--12--x-----------------------------------------
 4-10--10--10--10--x--%-10--10-----%----------12-%-14-12-----
 5-10--10--10--10--x------------12---12-14-14------------14--
 6-10--10--10--10--x-----------------------------------------
 1-----------------14------------------------------------------------
 2-----------------x-------------------------------------------------
 3---------12--12--x-------------------------------------------------
 4-10--10--10--10--x--%-10--10-----------12-12-12-14p12--------------
 5-10--10--10--10--x------------12/14-14----------------14-12\10-10--
 6-10--10--10--10--x-------------------------------------------------

 


 


 ~ ~


 

 
 1-----------------14---------------------------------------
 2-----------------x----------------------------------------
 3---------12--12--x----14--14-12---------12-14sr-12--------
 4-10--10--10--10--x--%-----------%-12-14------------14-12--
 5-10--10--10--10--x----------------------------------------
 6-10--10--10--10--x----------------------------------------
 1-----------------14------------------------------------------------
 2-----------------x-------------------------------------------------
 3---------12--12--x-------------------------------------------------
 4-10--10--10--10--x--%-10--10-----------12-12-12-14p12--------------
 5-10--10--10--10--x------------12/14-14----------------14-12\10-10--
 6-10--10--10--10--x-------------------------------------------------

 


 


 riff 2 fill - 2nd time only


 ~ ~


 

 
 2-17p0-0-----------------------17p0-0------------------------
 3--------16p0-0-12--------------------16p0-0-12--------------
 4-------------------12-12----%-------------------12-12----%--
 5-------------------------10---------------------------10----

 


 


 riff 3


 


 

 
 1------3--3------3--3------3--3-------3--3------10--10------10--10-----
 2------3--3------3--3------3--3-------3--3------10--10------10--10-----
 3------3--3------3--3------3--3-------3--3------10--10------10--10-----
 4-1--1------1--1------1--1-------1--1------8--8--------8--8------------
 5-1--1------1--1------1--1-------1--1------8--8--------8--8------------
 6-1--1------1--1------1--1-------1--1------8--8--------8--8------------
 1------10--10------10--10------7--7------7--7----------------------------5--
 2------10--10------10--10------7--7------7--7----------------------------5--
 3------10--10------10--10------7--7------7--7----------------------------5--
 4-8--8--------8--8--------5--5------5--5------7--7-7-7-7-10--10-10-10-10-3--
 5-8--8--------8--8--------5--5------5--5------7--7-7-7-7-10--10-10-10-10-3--
 6-8--8--------8--8--------5--5------5--5------7--7-7-7-7-10--10-10-10-10-3--

 


 


 riff 4


 


 [m] [m]  


 

 
 1-----------------------------------------------
 2-----------------------------------------------
 3-----------------10-10-10\5---5--5/7--7-7-7-7--
 4-1---1--1-1------x--x--x--x---x--x-x--x-x-x-x--
 5-1---1--1-1------8--8--8-\3---3--3/5--5-5-5-5--
 6-1---1--1-1--0-0------------------------------- 

 


 


 [m] [m] [m]  


 

 
 1--------------------------------------------
 2----------11--------------------------------
 3----------x---10---------0-2-3-5-3-2--------
 4-8---8--8-8---x----------------------0-3-0--
 5-8---8--8-----8----0-1-3--------------------
 6-8---8--8----------------------------------- 

 


 


 [m] [m]  


 

 
 1-----------------------------------------------
 2-----------------------------------------------
 3-----------------10-10-10\5---5--5/7--7-7-7-7--
 4-1---1--1-1------x--x--x--x---x--x-x--x-x-x-x--
 5-1---1--1-1------8--8--8-\3---3--3/5--5-5-5-5--
 6-1---1--1-1--0-0-------------------------------
 1-------------------------------------------------------
 2----------11------------------------11-11-11-15-15-15--
 3----------x---10--------10-10-10-10-x--x--x--x--x--x---
 4-8---8--8-8---x---8-8-8-x--x--x--x--8--8--8--12-12-12--
 5-8---8--8-----8---x-x-x-8--8--8--8---------------------
 6-8---8--8---------8-8-8--------------------------------
 1--------------------------------------------------------------------
 2-11-11-11-------------------------11-11-11----------------11-15-15--
 3-x--x--x--10-10-10-------10-10-10-x--x--x--10-10-10-------x--x--x---
 4-8--8--8--x--x--x--8-8-8-x--x--x--8--8--8--x--x--x--8-8-8-8--12-12--
 5----------8--8--8--x-x-x-8--8--8-----------8--8--8--x-x-x-----------
 6-------------------8-8-8----------------------------8-8-8-----------

 


 


 [m] [m] [m] 


 

 
 1-----------------------------------------------------------
 2-11-11-11--------------------------------------------------
 3-x--x--x--10-10-10-------10-10-10-------0-2-3-5-3-2--------
 4-8--8--8--x--x--x--8-8-8-x--x--x--------------------0-3-0--
 5----------8--8--8--x-x-x-8--8--8--0-1-3--------------------
 6-------------------8-8-8-----------------------------------

 


 


 fill 5


 


 

 
 1-------------------------17----17-----
 2-15-15-13----13----15-15-15-15-15-15--
 3-x--x--------------x--x--x--x--x--x---
 4-15-15----15----15-15-15-15-15-15-15--
 5--------------------------------------
 6--------------------------------------


Important: The song above is NOT stored on the Chordie server. The original song is hosted at www.azchords.com. Chordie works as a search engine and provides on-the-fly formatting. Chordie does not index songs against artists'/composers' will. To remove this song please click here.

This song is displayed as text-only. Transposing and tuning is only available for chordpro-songs.
Rate #1 of 1 versions

Login - add to songbook

SHARE PAGE  




You need to log in to post comments