Guitar Tabs, Chords and Lyrics
Server problems seems to be fixed. Chordie has been experiencing problems with songs disappearing. These issues now seems to be fixed, but still verifying the fix. If you find anything strange, please email admin@chordie.com.


The Pod   Hum

 
 E--8--8--8--8--/-3-3-3-3-3--/--5---6-6-6----------------------
 B--8--8--8--8--/-3-3-3-3-3--/--5---6-6-6----O---O--O-O---
 G-10-10-10-10-/--5-5-5-5-5--/--7---7-7-7----5---5--5-5---
 D-10-10-10-10-/--5-5-5-5-5--/--7---6-6-6----O---O--O-O---
 A--8--8--8--8-/--3-3-3-3-3--/--5---6-6-6----7---7--7-7----
 D--8--8--8--8-/--3-3-3-3-3--/--5-/-6-6-6----O---O--O-O--- 

 


 


 okay the last bit before the distortion kicks in is Tim


 playing the Bb chord and that high pitch sound in the


 background seems to be Matt doing some sort of pick


 scr*pe/slide by the pickups with the distortion and effects


 pedals on (experiment, you'll get it)


 


 verse riff


 dist. and other effects


 (D) (Ab) (G) (F) * (Bb) *=go chorus riff


 

 
 E---------------------------------------------------
 B----------------------------------------------------
 G--5',-5--5----7--7--7--7--5-5------10-10-101010-----
 D--X',-X--X----6--6-6---7--5-5--X-/-10-10-101010-----
 A--7',-7--7----6--6-6---5--3-3--X-/--8--8--8-8-8-------
 D--O---O--O----6--6-6---5--3-3--X-/--8--8--8-8-8------- 

 


 play verse riff over and over again


 except last time go to chorus riff instead of *(Bb)


 


 chorus riff


 [(C)] [(F)] [(Bb)] [(G)] [(F)] 


 

 
 E------------------------------------------------------
 B-------------------------------------------------
 G--12-12-12-12--10-10-10--1010--7-7-7--5-5-5-------
 D--12-12-12-12--10-10-10--1010--7-7-7--5-5-5--------
 A--10-10-10-10---8--8--8--8--8--5-5-5--3-3-3--------
 D--10-10-10-10------------8--8--5-5-5--3-3-3--------

 


 play chorus riff twice then go back to the verse riff then back to the


 chorus riff for the "she had the widest, bright ideas that all the..."


 then after that chorus go to the interlude.


 interlude


 [(C)] [(D)] [(Bb)] [(G)] [(F)] 


 

 
 E---------------------------------------------------
 B---------------------------------------------------
 G---12-12-/-14-14---14'------------------------------
 D---12-12-/-14-14--14------8888/5555/3333------------
 A---10-10-/-12-12-X--------8888/5555/3333------------
 D---10-10-/-12-12-X--------8888/5555/3333------------

 


 play a few times then play only the Bb, G, F chord progression


 


 pre-solo = this is what Tim does while Matt plays with feedback


 tip= strum the open D while rythmicly bending the other notes


 [(D)]  


 

 
 E-----------------------
 B------10',',---10',',----
 G------X',',----X',',----
 D--O--7',',-----7',',-----
 A--O-----------O------
 D--O-----------O-------

 


 


 the solo is Matt pick scr*ping and sliding rapidly back and forth near the


 pickups while coaxing some feedback(it sounds hard to play but all you need is


 a lot of volume and distortion)


 meanwhile Tim is playing the verse riff(and you may notice that you can hear


 him accent the high notes a little better)


 then after that play the chorus riff but end it on the C chord and go to outro


 


 outro


 [(Bb)]  


 

 
 E-------------------------------------------------------------
 B----------------------8-8-8-8-8-8-8/---------------------
 G-101010-/9-9-9-9/7-7-7-7-7-7-7/-5-5-3-3-5-5-3-3-
 D--8-8-8-8/7-7-7-7/5-5-5-5-5-5-5/-3-3-5-5-3-3-5-5-
 A--8-8-8-8/7-7-7-7/5-5-5-5-5-5-5/3-3-3-3-3-3-3-3--
 D--8-8-8-8/7-7-7-7/5-5-5-5-5-5-5/3-3-3-3-3-3-3-3--

 


 


 play outro a few times with distortion then a few times without


 


 v5-B


 


 The Pod


 BASS TAB


 


 Intro:


 

 
 E|--8-8-8-8-3-3-3-3-5-6~~-0-0-0-0---

 


 


 Verse:


 

 
 E|--5--0--0--7-7-5-3-3-3-10-10-10-10-10--

 


 


 Chorus:


 

 
 E|--5--0--0--7-7-5-3--3-3-3-3-0-0--10-10-10-10--

 


 


 Bridge:


 

 
 E|--7---7--7--5--5--5--5--3--3--3--3-------------------------
 Bridge (second pt): E|--7-7-7-7-5-5-5-5-3-3-3-3-7-7-7-7-5-5-5-5-3-3-3-3--

 


 


 Outro:


 

 
 A|----5-5-5-5-5-5-5-5---
 E|--0----------------3-3-3-3--1-1-1-0-3-3-3-3-3-3-3-3--8-8--8-8--7-7--7-7--5-5--5-5--5-5--


Important: The song above is NOT stored on the Chordie server. The original song is hosted at www.azchords.com. Chordie works as a search engine and provides on-the-fly formatting. Chordie does not index songs against artists'/composers' will. To remove this song please click here.

This song is displayed as text-only. Transposing and tuning is only available for chordpro-songs.
Rate #1 of 1 versions

Jango Player

Login - add to songbook

SHARE PAGE  



You need to log in to post comments