Guitar Tabs, Chords and Lyrics
Major upgrade!! After one year development the new version of Chordie is now online! Please give feedback.


The Scientists   Hum

 
 |-----------------------------------------------------------------|
 |-----------------------------------------------------------------|
 |-----------------------------------------------------------------|
 |-0-0-0-0-0-0-0-0-0-0-0-0-0-0-0-0-2-2-2-2-2-2-2-2-2-2-2-2-2-2-2-2-|
 |-0-0-0-0-0-0-0-0-0-0-0-0-0-0-0-0-2-2-2-2-2-2-2-2-2-2-2-2-2-2-2-2-|
 |-0-0-0-0-0-0-0-0-0-0-0-0-0-0-0-0-2-2-2-2-2-2-2-2-2-2-2-2-2-2-2-2-|

 


 


 VERSE


 x2


 

 
 |---------------------------------|
 |---------------------------------|
 |---------------------------------|
 |-2-2-2-2-2-2-2-2-2-2-2-2-2-2-2-2-|
 |-2-2-2-2-2-2-2-2-2-2-2-2-2-2-2-2-|
 |-2-2-2-2-2-2-2-2-2-2-2-2-2-2-2-2-|
 |---------------------------------|
 |---------------------------------|
 |---------------------------------|
 |-0-0-0-0-0-0-0-0-7-7-7-7-7-7-7-7-|
 |-0-0-0-0-0-0-0-0-7-7-7-7-7-7-7-7-|
 |-0-0-0-0-0-0-0-0-7-7-7-7-7-7-7-7-|
 |---------------------------------|
 |---------------------------------|
 |---------------------------------|
 |-2-2-2-2-2-2-2-2-2-2-2-2-2-2-2-2-|
 |-2-2-2-2-2-2-2-2-2-2-2-2-2-2-2-2-|
 |-2-2-2-2-2-2-2-2-2-2-2-2-2-2-2-2-|

 


 


 PRECHORUS


 

 
 |-------------------------------------|
 |-------------------------------------|
 |-------------------------------------|
 |-2-2-2-2-2-2-0---2--2-2-2-2-2-2--0---|
 |-2-2-2-2-2-2-0---2--2-2-2-2-2-2--0---|
 |-2-2-2-2-2-2-0---2--2-2-2-2-2-2--0---|

 


 


 BRIDGE


 

 
 |-------------------------------|
 |-5-5-5-5-5-5-5-5-5-5-5-5-5-5-5-|
 |-4-4-4-4-4-4-4-4-4-4-4-4-4-4-4-|
 |-2-2-2-2-2-2-2-2-2-2-2-2-2-2-2-|
 |-2-2-2-2-2-2-2-2-2-2-2-2-2-2-2-|
 |-2-2-2-2-2-2-2-2-2-2-2-2-2-2-2-|
 |-0-0-0-0-0-0-0-0-|
 |-2-2-2-2-2-2-2-2-|
 |-2-2-2-2-2-2-2-2-|
 |-0-0-0-0-0-0-0-0-|
 |-0-0-0-0-0-0-0-0-|
 |-0-0-0-0-0-0-0-0-|
 |-----------------|
 |-----------------|
 |-----------------|
 |-7-7-7-7-7-7-7-7-|
 |-7-7-7-7-7-7-7-7-|
 |-7-7-7-7-7-7-7-7-|
 |---------------------------------|
 |---------------------------------|
 |---------------------------------|
 |-2-2-2-2-2-2-2-2-2-2-2-2-2-2-2-2-|
 |-2-2-2-2-2-2-2-2-2-2-2-2-2-2-2-2-|
 |-2-2-2-2-2-2-2-2-2-2-2-2-2-2-2-2-|

 


 


 VERSE 2 - Same


 


 CHORUS - Play intro


 


 FEEDBACK SOLO


 


 x4


 

 
 |-----------------|
 |-----------------|
 |-----------------|
 |-4-4-4-4-4-4-4-4-|
 |-4-4-4-4-4-4-4-4-|
 |-4-4-4-4-4-4-4-4-|

 


 


 x4


 

 
 |-----------------|
 |-----------------|
 |-----------------|
 |-7-7-7-7-7-7-7-7-|
 |-7-7-7-7-7-7-7-7-|
 |-7-7-7-7-7-7-7-7-|

 


 


 x8


 

 
 |-----------------|
 |-----------------|
 |-----------------|
 |-4-4-4-4-4-4-4-4-|
 |-4-4-4-4-4-4-4-4-|
 |-4-4-4-4-4-4-4-4-|

 


 


 CHORUS 2 - Same


 


 VERSE 3 - Same


 


 PRECHORUS 2/OUTRO - Same


 


 End on


 

 
 |------|
 |------|
 |------|

 


 |-2----|


 |-2----|


 |-2----|


 


 v2


 HUM


 Downward is Heavenward


 


 Dropped D Tuning, half step down (Db,Ab,Db,Gb,Bb,Eb)


 


 Intro


 [-----]Both guitars, distorted


 


 

 
 Eb|-2-2-2-2-2-2-2-2-2-2-2-2-2-2-2-2-4-4-4-4-4-4-4-4-4-4-4-4-4-4-4-4-|
 Bb|-2-2-2-2-2-2-2-2-2-2-2-2-2-2-2-2-4-4-4-4-4-4-4-4-4-4-4-4-4-4-4-4-|
 Gb|-2-2-2-2-2-2-2-2-2-2-2-2-2-2-2-2-4-4-4-4-4-4-4-4-4-4-4-4-4-4-4-4-|
 Db|-0-0-0-0-0-0-0-0-0-0-0-0-0-0-0-0-2-2-2-2-2-2-2-2-2-2-2-2-2-2-2-2-|
 Ab|-0-0-0-0-0-0-0-0-0-0-0-0-0-0-0-0-2-2-2-2-2-2-2-2-2-2-2-2-2-2-2-2-|
 Db|-0-0-0-0-0-0-0-0-0-0-0-0-0-0-0-0-2-2-2-2-2-2-2-2-2-2-2-2-2-2-2-2-|

 


 *Play that 3 times.


 


 Then play this the 4th time to end the intro:


 


 

 
 Eb|-2-2-2-2-2-2-2-2-2-2-2-2-2-2-2-2-4---4-------|
 Bb|-2-2-2-2-2-2-2-2-2-2-2-2-2-2-2-2-4-----4-----|
 Gb|-2-2-2-2-2-2-2-2-2-2-2-2-2-2-2-2-4---------4-|
 Db|-0-0-0-0-0-0-0-0-0-0-0-0-0-0-0-0-2-----------|
 Ab|-0-0-0-0-0-0-0-0-0-0-0-0-0-0-0-0-2-----------|
 Db|-0-0-0-0-0-0-0-0-0-0-0-0-0-0-0-0-2-----------|

 


 


 Verse


 [-----]Both guitars, distorted


 


 "Electrified and lit up by an outline of herself..."


 

 
 Eb|-4-4-4-4-4-4-4-4-4-4-4-4-4-4-4-4-4-4-4-4-4-4-4-4-4-4-4-4-4-4-4-4-|
 Bb|-4-4-4-4-4-4-4-4-4-4-4-4-4-4-4-4-4-4-4-4-4-4-4-4-4-4-4-4-4-4-4-4-|
 Gb|-4-4-4-4-4-4-4-4-4-4-4-4-4-4-4-4-4-4-4-4-4-4-4-4-4-4-4-4-4-4-4-4-|
 Db|-2-2-2-2-2-2-2-2-2-2-2-2-2-2-2-2-2-2-2-2-2-2-2-2-2-2-2-2-2-2-2-2-|
 Ab|-2-2-2-2-2-2-2-2-2-2-2-2-2-2-2-2-2-2-2-2-2-2-2-2-2-2-2-2-2-2-2-2-|
 Db|-2-2-2-2-2-2-2-2-2-2-2-2-2-2-2-2-2-2-2-2-2-2-2-2-2-2-2-2-2-2-2-2-|
 Eb|-2-2-2-2-2-2-2-2/9-9-9-9-9-9-9-9/4-4-4-4-4-4-4-4-4-4-4-4-4-4-4-4-|
 Bb|-2-2-2-2-2-2-2-2/9-9-9-9-9-9-9-9/4-4-4-4-4-4-4-4-4-4-4-4-4-4-4-4-|
 Gb|-2-2-2-2-2-2-2-2/9-9-9-9-9-9-9-9/4-4-4-4-4-4-4-4-4-4-4-4-4-4-4-4-|
 Db|-0-0-0-0-0-0-0-0/7-7-7-7-7-7-7-7/2-2-2-2-2-2-2-2-2-2-2-2-2-2-2-2-|
 Ab|-0-0-0-0-0-0-0-0/7-7-7-7-7-7-7-7/2-2-2-2-2-2-2-2-2-2-2-2-2-2-2-2-|
 Db|-0-0-0-0-0-0-0-0/7-7-7-7-7-7-7-7/2-2-2-2-2-2-2-2-2-2-2-2-2-2-2-2-|

 


 


 *Play that once.


 


 Then play this to end the first verse:


 


 "Her lovely hand is glowing from the light inside itself..."


 

 
 Eb|-4-4-4-4-4-4-4-4-4-4-4-4-4-4-4-4-4-4-4-4-4-4-4-4-4-4-4-4-4-4-4-4-|
 Bb|-4-4-4-4-4-4-4-4-4-4-4-4-4-4-4-4-4-4-4-4-4-4-4-4-4-4-4-4-4-4-4-4-|
 Gb|-4-4-4-4-4-4-4-4-4-4-4-4-4-4-4-4-4-4-4-4-4-4-4-4-4-4-4-4-4-4-4-4-|
 Db|-2-2-2-2-2-2-2-2-2-2-2-2-2-2-2-2-2-2-2-2-2-2-2-2-2-2-2-2-2-2-2-2-|
 Ab|-2-2-2-2-2-2-2-2-2-2-2-2-2-2-2-2-2-2-2-2-2-2-2-2-2-2-2-2-2-2-2-2-|
 Db|-2-2-2-2-2-2-2-2-2-2-2-2-2-2-2-2-2-2-2-2-2-2-2-2-2-2-2-2-2-2-2-2-|
 Eb|-2-2-2-2-2-2-2-2/9-9-9-9-9-9-9-94-4-4-4-4-4-----4-4-4-4-4-4-----|
 Bb|-2-2-2-2-2-2-2-2/9-9-9-9-9-9-9-94-4-4-4-4-4-----4-4-4-4-4-4-----|
 Gb|-2-2-2-2-2-2-2-2/9-9-9-9-9-9-9-94-4-4-4-4-4-----4-4-4-4-4-4-----|
 Db|-0-0-0-0-0-0-0-0/7-7-7-7-7-7-7-72-2-2-2-2-2-0-0-2-2-2-2-2-2-0-0-|
 Ab|-0-0-0-0-0-0-0-0/7-7-7-7-7-7-7-72-2-2-2-2-2-0-0-2-2-2-2-2-2-0-0-|
 Db|-0-0-0-0-0-0-0-0/7-7-7-7-7-7-7-72-2-2-2-2-2-0-0-2-2-2-2-2-2-0-0-|
 Eb|-4-4-4-4-4-4-----4-4-4-4-4-4-----4-4-4-4-4-4-----4-|
 Bb|-4-4-4-4-4-4-----4-4-4-4-4-4-----4-4-4-4-4-4-----4-|
 Gb|-4-4-4-4-4-4-----4-4-4-4-4-4-----4-4-4-4-4-4-----4-|
 Db|-2-2-2-2-2-2-0-0-2-2-2-2-2-2-0-0-2-2-2-2-2-2-0-0-2-|
 Ab|-2-2-2-2-2-2-0-0-2-2-2-2-2-2-0-0-2-2-2-2-2-2-0-0-2-|
 Db|-2-2-2-2-2-2-0-0-2-2-2-2-2-2-0-0-2-2-2-2-2-2-0-0-2-|

 


 


 Soft Part


 

 
 --------

 


 Guitar 1, clean


 


 "It's too much your too late..."


 

 
 Eb|-----------4-----4-------4-------4-------4-------4-------4-|
 Bb|-----------4-----4-------4-------4-------4-------4-------4-|
 Gb|-----------4-----4-------4-------4-------4-------4-------4-|
 Db|-2-2-2-2-2-2-2-2-2---2-2-2---2-2-2---2-2-2---2-2-2---2-2-2-|
 Ab|-2-2-2-2-2-2-2-2-2---2-2-2---2-2-2---2-2-2---2-2-2---2-2-2-|
 Db|-2-2-2-2-2-2-2-2-2---2-2-2---2-2-2---2-2-2---2-2-2---2-2-2-|
 Eb|-----2-------2--9-9-9-9-9-9-9-94-4-4-4-4-4-4-4-4-4-4-4-4-4-4-4-|
 Bb|-----2-------2--9-9-9-9-9-9-9-94-4-4-4-4-4-4-4-4-4-4-4-4-4-4-4-|
 Gb|-----2-------2--9-9-9-9-9-9-9-94-4-4-4-4-4-4-4-4-4-4-4-4-4-4-4-|
 Db|-0-0-0---0-0-0--7-7-7-7-7-7-7-72-2-2-2-2-2-2-2-2-2-2-2-2-2-2-2-|
 Ab|-0-0-0---0-0-0--7-7-7-7-7-7-7-72-2-2-2-2-2-2-2-2-2-2-2-2-2-2-2-|
 Db|-0-0-0---0-0-0--7-7-7-7-7-7-7-72-2-2-2-2-2-2-2-2-2-2-2-2-2-2-2-|

 


 *Kick in distortion right here.


 *Guitar 2 comes in here too.


 


 then Verse 2, same as verse 1


 


 then the Chorus, same as intro


 


 Breakdown part


 

 
 --------------

 


 Guitar 1, distorted


 


 

 
 Eb|---------------------------------------------------|
 Bb|---------------------------------------------------|
 Gb|---------------------------------------------------|
 Db|-2/4-4-4-42-2-2-2/4-4-4-42-2-2-2/4-4-4-42-2-2-2-|
 Ab|-2/4-4-4-42-2-2-2/4-4-4-42-2-2-2/4-4-4-42-2-2-2-|
 Db|-2/4-4-4-42-2-2-2/4-4-4-42-2-2-2/4-4-4-42-2-2-2-|


Important: The song above is NOT stored on the Chordie server. The original song is hosted at www.azchords.com. Chordie works as a search engine and provides on-the-fly formatting. Chordie does not index songs against artists'/composers' will. To remove this song please click here.

This song is displayed as text-only. Transposing and tuning is only available for chordpro-songs.
Rate #1 of 1 versions

Jango Player

Login - add to songbook

SHARE PAGE  




You need to log in to post comments