Guitar Tabs, Chords and Lyrics
Server problems seems to be fixed. Chordie has been experiencing problems with songs disappearing. These issues now seems to be fixed, but still verifying the fix. If you find anything strange, please email admin@chordie.com.


All You Ever  Hunter Hayes

<i></i>Intro:-
(Guitar-1)
 
 e|-----------------------------|
 B|--------2-------------2------|
 G|----------3~------------3-1--|
 D|--1h3h4---------1h3h4--------|
 A|-----------------------------|
 E|-----------------------------| X2

Verse 1:-
CAPO on 1st fret.
[Dm]You gave me chances, and [A#]I let you down
You [Dm]waited for words, that I co[A#]uldn't get out
I h[Dm]ad no excuses, for the w[F]ay that I am
I was [C]clueless then, I couldn't under[A#]stand
Chorus :-
All that you [F]wanted, and all that you [C]needed
Was a [Dm]side of me I never let you s[A#]ee
I wish I could l[F]ove you, and make you beli[C]eve it
Cuz that's [Dm]all you ever wanted, [A#]all you ever wanted
(Guitar-1)
 
 e|-----------------------------|
 B|--------2-------------2------|
 G|----------3~------------3-1--|
 D|--1h3h4---------1h3h4--------|
 A|-----------------------------|
 E|-----------------------------|

(Guitar-2)
 
 e|------------------------------------------|
 B|------------------------------------------|
 G|---------------------------------1--------|
 D|---------------------------1-3-4---4-3----|
 A|-------------------------4-------------4--|
 E|------------------------------------------|

Verse 2 :-
[Dm]Could I be selfish, or [A#]lost in my pride
Afra[Dm]id to be forward, or just [A#]too scared to try
[Dm]Now I'm without you, and it took d[F]istance to see
That [C]losing you means losing everyt[A#]hing
*Chorus*(mercy!!)
*solo*( some other tab :-) till then keep playing F C Dm A# )
[F] Is it too late, no you're [C]too far
To turn arou[Dm]nd
And let me [A#]be
(ring)
Let me be
 
 e|---------------2----|
 B|-------------2---2--|
 G|--------------------|
 D|-----------4--------|
 A|--------------------|
 E|--------------------|

All that you wanted
 
 e|---------------1----|
 B|-------------2---2--|
 G|--------------------|
 D|-----------3--------|
 A|--------------------|
 E|--------------------|

All that you needed
 
 e|-----------------2----|
 B|---------------4---4--|
 G|----------------------|
 D|-------------1--------|
 A|----------------------|
 E|----------------------|

I'll show the side of me I never let you see
And I wish I could love you,[F] and make you bel[C]ieve it
Cuz that's a[Dm]ll you ever wanted, and that's a[A#]ll you ever wanted
And that's[F] all you ever wanted
It's [C]all you ever wanted
*Outro*
(Guitar-1)
 
 e|-----------------------------|
 B|--------2-------------2------|
 G|----------3~------------3-1--|
 D|--1h3h4---------1h3h4--------|
 A|-----------------------------|
 E|-----------------------------|
 e|---------------------------------------|
 B|--------2--------------------2---------|
 G|----------3b4b3b4b3v------------3-1----|
 D|--1h3h4----------------1h3h4-----------|
 A|---------------------------------------|
 E|---------------------------------------|

Dedicated to Asa

Important: The song above is NOT stored on the Chordie server. The original song is hosted at www.azchords.com. Chordie works as a search engine and provides on-the-fly formatting. Chordie does not index songs against artists'/composers' will. To remove this song please click here.

Text color:
Chord color:
Chord grids: 
Font size:    
Page size: 

A# C Dm F
Rate #1 of 8 versions

Jango Player

Login - add to songbook

SHARE PAGE  



You need to log in to post comments