Guitar Tabs, Chords and Lyrics
Server problems seems to be fixed. Chordie has been experiencing problems with songs disappearing. These issues now seems to be fixed, but still verifying the fix. If you find anything strange, please email admin@chordie.com.


Judy  Hunter Valentine

Judy By Hunter Valentine
Standard Tuning
This is a piano song but I love it and couldn't find a tab for it anywhere.
Hunter Valentine is an awesome band, I've seen them live 5 times and not only
are they awesome to listen to, they're so down to earth and love their fans.
Thanks and enjoy!
Modified Bar Chords:
Bm 799XXX
A 577XXX
G 355XXX
D X577XX
The verse is picked and the chorus and bridge are strummed:
Intro:
[Bm] [A] [G] [Bm] [A] [G] [G] [A]  
 
 e|-------------------------------------------------------------------------------|
 B|-------------------------------------------------------------------------------|
 G|-------------------------------------------------------------------------------|
 D|------9----------7-----------------9----------7--------------------------------|
 A|----9---9------7---7-------------9---9------7---7------------------------------|
 E|--7----------5----------3------7----------5----------3------3--------5---------|

Verse: (She's...
[Bm] [A] [G] [Bm] [A] [G] [G] [A]  
 
 e|-------------------------------------------------------------------------------|
 B|-------------------------------------------------------------------------------|
 G|-------------------------------------------------------------------------------|
 D|------9----------7-----------------9----------7--------------------------------|
 A|----9---9------7---7-------------9---9------7---7------------------------------|
 E|--7----------5----------3------7----------5----------3------3--------5---------|

pushing for me to think twice - making all my wrongs feel... (And...
[Bm] [A] [G] [Bm] [A] [G] [G] [A]  
 
 e|-------------------------------------------------------------------------------|
 B|-------------------------------------------------------------------------------|
 G|-------------------------------------------------------------------------------|
 D|------9----------7-----------------9----------7--------------------------7-----|
 A|----9---9------7---7-------------9---9------7---7----------------------7-------|
 E|--7----------5----------3------7----------5----------3---------------5---------|

But you're forcing me to be alone - I'm forgetting what I... (For me...
Chorus:
J[D]udy don't you cry.
I know it's not what you're [A]used to.
[D]And when time gets right then
We'll get back where we [A]need to.
[Bm] [A] [G] [Bm] [A] [G] [G] [A]  
 
 e|-------------------------------------------------------------------------------|
 B|-------------------------------------------------------------------------------|
 G|-------------------------------------------------------------------------------|
 D|------9----------7-----------------9----------7--------------------------------|
 A|----9---9------7---7-------------9---9------7---7------------------------------|
 E|--7----------5----------3------7----------5----------3------3--------5---------|

(Pretending...
[Bm] [A] [G] [Bm] [A] [G] [G] [A]  
 
 e|-------------------------------------------------------------------------------|
 B|-------------------------------------------------------------------------------|
 G|-------------------------------------------------------------------------------|
 D|------9----------7-----------------9----------7--------------------------------|
 A|----9---9------7---7-------------9---9------7---7------------------------------|
 E|--7----------5----------3------7----------5----------3------3--------5---------|

Like stalking what you just... - Like living in a content lie. (Your..
[Bm] [A] [G] [Bm] [A] [G] [G] [A]  
 
 e|-------------------------------------------------------------------------------|
 B|-------------------------------------------------------------------------------|
 G|-------------------------------------------------------------------------------|
 D|------9----------7-----------------9----------7--------------------------7-----|
 A|----9---9------7---7-------------9---9------7---7----------------------7-------|
 E|--7----------5----------3------7----------5----------3------3--------5---------|

And I can't see the surface... - You're laying out the bait... (For..
Chorus:
[D]Judy don't you cry.
I know it's not what you're [A]used to.
[D]And when time gets right then
We'll get back where we n[A]eed to.
[D] [A] [Bm] [-] [D] [A] [Bm]  
Bridge:
[D]Walking through [A]this house
[Bm]I know that you [G]feel sad.
[D]And I want to [A]save you from
[Bm]All of your [G]madness, and
[D]We can be [A]safe from al[Bm]l the things
That you've been [G]fighting from, and
[D]We can heal all [A]these things to
[Bm]Make you feel [A]better, oh oh, oh oh.
Chorus:
[D]Judy don't you cry.
I know it's not what you're [A]used to.
[D]And when time gets right then
We'll get back where we [A]need to.
[Bm] [A] [G] [Bm] [A] [G]  
 
 e|---------------------------------------------------|
 B|---------------------------------------------------| S
 G|---------------------------------------------------| T
 D|------9----------7-----------------9----------7----| R
 A|----9---9------7---7-------------9---9------7---7--| U
 E|--7----------5----------3------7----------5--------| M


Important: The song above is NOT stored on the Chordie server. The original song is hosted at www.azchords.com. Chordie works as a search engine and provides on-the-fly formatting. Chordie does not index songs against artists'/composers' will. To remove this song please click here.

Text color:
Chord color:
Chord grids: 
Font size:    
Page size: 

A Bm D G
Rate #1 of 1 versions

Jango Player

Login - add to songbook

SHARE PAGE  




You need to log in to post comments