Guitar Tabs, Chords and Lyrics
Login is temporarily disabled for some users. Do not panic. Will be back in an hour or two. DO NOT REREGISTER!!


Typical  Hunter Valentine

Keep your guitar in standard tuning
[E]  
[B]  
[G]  
[D]  
[A]  
[E]  
p=pull off
PM= palm mute
Here you go have fun
verse guitar #1
 
 E----------------------------------------------------------------|
 B----------------------------------------------------------------|
 G------------------------------------------------4-4-4-4-4-------|
 D---------------------5p3------------------------4-4-4-4-4-------| X2
 A-5-5-5-5-5-5-5-5-5-5-----5p3-2-2--2-2-2--2-2-2--2-2-2-2-2-------|
 E----------------------------------------------------------------|

Picking up the pieces of last nights consent......
Verse rhythm guitar
 
 E-------------------------------------------------------|
 B-------------------------------------------------------|
 G-7-7-7-7-7-7-7-7-7-7-7-7-4-4--4-4-4--4-4-4--4-4-4-4-4--|
 D-7-7-7-7-7-7-7-7-7-7-7-7-4-4--4-4-4--4-4-4--4-4-4-4-4--|
 A -5-5-5-5-5-5-5-5-5-5-5-5-2-2--2-2-2--2-2-2--2-2-2-2-2-|
 E-------------------------------------------------------|

Chorus (Figure out the rhythm of it)
 
 E----------------|
 B----------------|
 G-7-4------------|
 D-7-4-5-7--------| PM
 A-5-2-5-7--------|
 E-----3-5--------|

Bridge (Figure out the rhythm of it)
E-5-2-3-5-|
B-5-2-3-5-|
G-7-4-3-5-|
D-7-4-5-7-|
A-5-2-5-7-|
 
 E-----3-5-|

That's all folks

Important: The song above is NOT stored on the Chordie server. The original song is hosted at www.azchords.com. Chordie works as a search engine and provides on-the-fly formatting. Chordie does not index songs against artists'/composers' will. To remove this song please click here.

Text color:
Chord color:
Chord grids: 
Font size:    
Page size: 

A B D E G
Rate #2 of 2 versions

Jango Player

Login - add to songbook

SHARE PAGE  



You need to log in to post comments