Guitar Tabs, Chords and Lyrics
Major upgrade!! After one year development the new version of Chordie is now online! Please give feedback.


Search and Destroy  Iggy Pop

The Intro Chords Are C# and F# play them as bar chords on the 9th fret
do it like this for C#
|--9--
|--9--
|--10-
|--11-
|--11-
|--9---
F# do it like this
|--9
|--11
|--11
|--11
|--9
|--9
[C#C#C#]The Main[F#F#F#C#C#] Riff[C#C#C#] [F#F#F#C#C#]
*1 *2
 
 e-----------------------------------------------------------------------------|
 b----------------------------------------------------------------------------|
 g------9-1111^-11-9-11-9------9Slide up 11 Slide down 9----------------------|
 d--11---------------------------11------------------------------------11--9--|
 a----------------------------------------------------------------------------|
 E----------------------------------------------------------------------------|

*1 bend about a quarter of the way*2 play the nine softly then play the next part
 
 e------------------12141214^14-12---------|
 b-1414141214-----------------------------|
 g----------------------------------------|
 d----------------------------------------|
 a----------------------------------------|
 E----------------------------------------|

Note Timing is not as shown above
[C#]I'm a street walking cheetah with a heart full of nap[E]alm[A] [C#C#C#] [F#F#F#]
[C#]I'm a runaway son of the nuclear a-bo[E]mb[A] [C#C#C#] [F#F#F#]
[C#]I am a wo[B]rld's for[A]gotten boy[B]
[C#]The one who s[B]earches a[A]nd destroys[B]
Now this is what you do for this part of the song that might be the chorus Timing is not exact
[F] [F#]  
 
 |--1\\\\2--------------| For this part slide from F to F# then with your finger Thatā??s on the a
 |--1\\\\2--------------| string hit those 4 notes
 |--2\\\\3--------------|
 |--3\\\\4--------------|
 |--3\\\\4---------2-4--|
 |--1\\\\2--2-4---------|

Then go to the A Bar chord
[a]  
 
 |--5-----------| Use the Method above to hit the 4 notes
 |--5-----------|
 |--6-----------|
 |--7-----------|
 |--7-------5-7-|
 |--5-5-7-------|

Now go to the E chord Use the Method above to hit the 4 notes then
[E] [G#]  
 
 |--0-----------------4-|
 |--0-----------------4-|
 |--1-----------------5-|
 |--2-----------------6-|
 |--2--------0-2-----6--|
 |--0-0-2------------4--|

This is the Chorus
[F] [F#] Honey gotta help me please[A]
Somebody gotta save my soul[E]
Baby detonate for me[G#]
[C#]Look out honey, 'cause i'[E]m using technology[A] [C#C#C#] [F#F#F#]
[C#]Ain't got time to make no[E] apology[A] [C#C#C#] [F#F#F#]
[C#]Soul r[B]adiation in the dead of[A] night[B]
[C#]Love in the middle [B]of a fire figh[A]t[B]
CHORUS Use The way That was used before
[F] [F#] Honey gotta strike me blind[A]
Somebody gotta save my soul[E]
Baby penerate my mind[G#]
[C#] [B] And I'm [A]the world's forgotten b[B]oy
[C#] [B] The on[A]e who's searchin', sea[B]rchin' to destroy
[C#]And honey I'm the[B] world's forgot[A]ten boy[B]
[C#] [B] The one[A] who's searchin', searchin' to destr[B]oy
* *
 
 e------------------------------------------------------------------------------------------|
 b-----------------------------------------------------------------------------------------|
 g------9Slide to this fret1111^-11-9-11-9----9Slide up 11 Slide down 9--------------------|
 d--11--------------------------------------------11--------------------------------11--9--|
 a-----------------------------------------------------------------------------------------|
 E-----------------------------------------------------------------------------------------|

* at those parts do a quick C#F# trill
 
 e------------------- 12141214^14-12-14--|
 b-1414141214---------------------------|
 g--------------------------------------|
 d--------------------------------------|
 a--------------------------------------|
 E--------------------------------------|

[C#]Look out honey, 'cause i'[E]m using technology[A] [C#C#C#] [F#F#F#]
[C#]Ain't got time to make no[E] apology[A] [C#C#C#] [F#F#F#]
[C#]Soul r[B]adiation in the dead of[A] night[B]
[C#]Love in the middle [B]of a fire figh[A]t[B]
CHORUS Use The way That was used before
[F] [F#] Honey gotta strike me blind[A]
Somebody gotta save my soul[E]
Baby penerate my mind[G#]
[C#] [B] And I'm [A]the world's forgotten b[B]oy
[C#] [B] The one who's s[A]earchin', searchin' to des[B]troy
[C#]And honey I'm the[B] world's forgot[A]ten boy[B]
[C#] [B] The one[A] who's searchin', searchin' to destr[B]oy
When you hear the Guitar going crazy in the background you can either play chords or do
part on the 14th and 12th frets slowly at first then just do hammer onā??s and pulloffs at
14th and 12th frets on the high e string
[C#]Forgotten b[B]oy, f[A]orgotten boy[B]
[C#]Forgotten boy said he[B]y f[A]orgotten boy[B]
I apologize if their are any mistakes

Important: The song above is NOT stored on the Chordie server. The original song is hosted at www.azchords.com. Chordie works as a search engine and provides on-the-fly formatting. Chordie does not index songs against artists'/composers' will. To remove this song please click here.

Text color:
Chord color:
Chord grids: 
Font size:    
Page size: 

A B C# E F F# G#
Rate #1 of 1 versions

Login - add to songbook

SHARE PAGE  




You need to log in to post comments