Guitar Tabs, Chords and Lyrics
Login is temporarily disabled for some users. Do not panic. Will be back in an hour or two. DO NOT REREGISTER!!


Tom Tom  Iggy Pop

Song : Tom Tom
Tuning = normal
Intro
 
 E----------------------------|---------------------------|
 B--------------3-------------|----------3----------------|
 G--------------2-------------|----------2----------------|
 D--2-2-0-2--0--0-------------|2-0-2--0--0----------------|
 A------------------3--2------|---------------3--2--------|
 E-----------------------3--0-|---------------------3--0--|

verse
 
 E-------------------------------|-------------------------------|
 B-------------------------------|-------------------------------|
 G----------------------7----7-9-|----------------------7----7-9-| x4
 D----------------------7----7-9-|----------------------7----7-9-|
 A-------0-2-0---0---5--5--5-5-7-|-------0-2-0---0---5--5--5-5-7-|
 E--0--3-------3-----------------|--0--3-------3-----------------|
 E----------------------------|---------------------------|
 B--------------3-------------|---------------------------|
 G--------------2-------------|---------------------------|
 D--2-2-0-2--0--0-------------|2-0-2--0--0----------------|x4
 A------------------3--2------|---------------3--2--------|
 E-----------------------3--0-|---------------------3--0--|

"Pure love, sunshine... We are related, you know
[C] [D] [G] [A]  
 
 E------------------|-------------------------------------|
 B---1---3--0-------|-------------------------------------|
 G---0---2--0---2---|----------------------7----7-9-------|
 D---2---0--0---2---|----------------------7----7-9-------|
 A---3----------0---|-------0-2-0---0---5--5--5-5-7-------|
 E------------------|--0--3-------3-----------------------|

"The sky is angry, Over this city
 
 E---4--2-----4--2------|--4--2-----4--2----------------------|
 B---5--3-----5--3------|--5--3-----5--3----------------------|
 G---4--2-----4--2------|--4--2-----4--2----------------------|
 D----------------------|-------------------------------------|
 A----------------------|-------------------------------------|
 E----------------------|-------------------------------------|

let ring
"So many things of no worth,...
 
 E-------------------------------|-------------------------------|
 B-------------------------------|-------------------------------|
 G----------------------7----7-9-|----------------------7----7-9-| x4
 D----------------------7----7-9-|----------------------7----7-9-|
 A-------0-2-0---0---5--5--5-5-7-|-------0-2-0---0---5--5--5-5-7-|
 E--0--3-------3-----------------|--0--3-------3-----------------| 

Lyrics
Iggy Pop
Tom Tom lyrics
Hey little one
You've got the way
I ain't doing nothin'
That's so important
I'd like to know how you deal
Oh when I worry to darken
If I can't get in your show
I'll take my tom tom and go
Yeah, yeah
Yeah, yeah
While you were mine
I got so hazy
While you passed by
I found my answer
Is this the best thing in life
The only thing I remember
If I can't get in your show
I'll take my tom tom and go
Pure love, sunshine
Our love is always fine
We are related, you know
I'll take my tom tom and go
We are related, you know
I'll take my tom tom and go
Yeah, yeah
Yeah, yeah
Yeah, yeah
The sky is angry
Over this city
Birds fly like devils
Over this city
So many things of no worth
Are being shoved in my face
When all the wealth in the world
May work the faith in one girl
That's why I'm sad to say
Till there can be no hate, oh
The only one they come through
Is absolute
YOU

Important: The song above is NOT stored on the Chordie server. The original song is hosted at www.azchords.com. Chordie works as a search engine and provides on-the-fly formatting. Chordie does not index songs against artists'/composers' will. To remove this song please click here.

Text color:
Chord color:
Chord grids: 
Font size:    
Page size: 

A C D G
Rate #1 of 1 versions

Jango Player

Login - add to songbook

SHARE PAGE  




You need to log in to post comments