Guitar Tabs, Chords and Lyrics
Server problems seems to be fixed. Chordie has been experiencing problems with songs disappearing. These issues now seems to be fixed, but still verifying the fix. If you find anything strange, please email admin@chordie.com.


Vacuum   In Flames

 
 |-----------------------------------------------------------------|
 |-----------------------------------------------------------------|
 |-------------------------------------------------------------3-2-|
 |-----3-7-6-----2-5-------------------3-7-6-----2-5---------------|
 |-------------------------0-1-0-1---------------------------------|
 |-0-0-------0-0-----0-0-0-0-1-0-1-0-0-------0-0-----0-0-0-0-0-----|

 


 . . . . . . . . . . . . . . . .


 


 

 
 |-----------------------------------------------------------------|
 |-----------------------------------------------------------------|
 |-----------------------------------------------------------------|
 |-----3-7-6-----2-5-------------------3-7-6-----2-5---------------|
 |-------------------------0-1-0-1-----------------------------*5--|
 |-0-0-------0-0-----0-0-0-0-1-0-1-0-0-------0-0-----0-0-0-0-0-----|

 


 | . . . . . . . . . . . . . . . . |


 

 
 |-----------------------------------------------------------------|
 |-----------------------------------------------------------------|
 |-----------------------------------------------------------------|
 |-----3-7-6-----2-5-------------------3-7-6-----2-5---------------|
 |-------------------------0-1-0-1---------------------------------|
 |-0-0-------0-0-----0-0-0-0-1-0-1-0-0-------0-0-----0-0-0-0-0-0-0-|

 


 . . . . . . . . . . . . . . . . . .


 


 VERSE


 

 
 |-----------------------------------------------------------------|
 |-----------------------------------------------------------------|
 |-------------------------------------------------------------3-2-|
 |-----3-7-6-----2-5-------------------3-7-6-----2-5---------------|
 |-------------------------0-1-0-1---------------------------------|
 |-0-0-------0-0-----0-0-0-0-1-0-1-0-0-------0-0-----0-0-0-0-0-----|

 


 . . . . . . . . . . . . . . . .


 


 

 
 |-----------------------------------------------------------------|
 |-----------------------------------------------------------------|
 |-----------------------------------------------------------------|
 |-----3-7-6-----2-5-------------------3-7-6-----2-5---------------|
 |-------------------------0-1-0-1-----------------------------1-0-|
 |-0-0-------0-0-----0-0-0-0-1-0-1-0-0-------0-0-----0-0-0-0-0-----|

 


 . . . . . . . . . . . . . . . .


 


 PRE-CHORUS.. kind of


 

 
 |-----------------------------------------------------------------|
 |-----------------------------------------------------------------|
 |-----------------------------------------------------------------|
 |-----------------------------------------------------------------|
 |-5-----5-7---8-------5---7---8---5-----5-7---8-------5---7---8---|
 |---0-0-----0---0-0-0---0---0---0---8-8-----8---8-8-8---8---8---8-|

 


 . . . . . . . . . . . . . . . . . .


 


 

 
 |-----------------------------------------------------------------|
 |-----------------------------------------------------------------|
 |-----------------------------------------------------------------|
 |-----------------------------------------------------------------|
 |-5-----5-7---8-------5---7---8---7-----7-8--10------7---8---10---|
 |---7-7-----7---7-7-7---7---7---7--1010----10--101010--10--10--10-|

 


 . . . . . . . . . . . . . . . . . .


 


 [VERSE] 


 


 PRE-CHORUS


 

 
 |-----------------------------------------------------------------|
 |-----------------------------------------------------------------|
 |-----------------------------------------------------------------|
 |-----------------------------------------------------------------|
 |-5-----5-7---8-------5---7---8---5-----5-7---8-------5---7---8---|
 |---0-0-----0---0-0-0---0---0---0---8-8-----8---8-8-8---8---8---8-|

 


 . . . . . . . . . . . . . . . . . .


 


 

 
 |-----------------------------------------------------------------|
 |-----------------------------------------------------------------|
 |-----------------------------------------------------------------|
 |-----------------------------------------------------------------|
 |-5-----5-7---8-------5---7---8---7-----7-8--10------7---8---10---|
 |---7-7-----7---7-7-7---7---7---7--1010----10--101010--10--10--10-|

 


 . . . . . . . . . . . . . . . . . .


 


 

 
 |-----------------------------------------------------------------|
 |-----------------------------------------------------------------|
 |-----------------------------------------------------------------|
 |-----------------------------------------------------------------|
 |-5-----5-7---8-------5---7---8---5-----5-7---8-------5---7---8---|
 |---0-0-----0---0-0-0---0---0---0---8-8-----8---8-8-8---8---8---8-|

 


 | . . . . . . . . . . . . . . . . . . |


 

 
 |-----------------------------------------------------------------|
 |-----------------------------------------------------------------|
 |-----------------------------------------------------------------|
 |-----------------------------------------------------------------|
 |-8-----810--12-------8--10--12---8-----810--12-------8--10--12---|
 |---0-0-----0---0-0-0---0---0---0---8-8-----8---8-8-8---8---8---8-|

 


 . . . . . . . . . . . . . . . . . .


 


 

 
 |-----------------------------------------------------------------|
 |-----------------------------------------------------------------|
 |-----------------------------------------------------------------|
 |-----------------------------------------------------------------|
 |-5-----5-7---8-------5---7---8---7-----7-8--7-------7---8---7----|
 |---7-7-----7---7-7-7---7---7---7--1010----10--101010--10--10--10-|

 


 | . . . . . . . . . . . . . . . . . . |


 

 
 |-----------------------------------------------------------------|
 |-----------------------------------------------------------------|
 |-----------------------------------------------------------------|
 |-----------------------------------------------------------------|
 |-8-----810--12-------8--10--12--10----1012--10------10--12--10---|
 |---7-7-----7---7-7-7---7---7---7--1010----10--101010--10--10--10-|

 


 . . . . . . . . . . . . . . . . . .


 


 FILL


 

 
 |-----------------------------------------------------------------|
 |-----------------------------------------------------------------|
 |-5h7-----5h7-----5h7-----3-3-3-3-5h7-----5h7-------3-------------|
 |-----0-0-----0-0-----0-0-3-3-3-3-----0-0-----0-0---3-------------|
 |-------------------------1-1-1-1-----------------1-1-------------|
 |-----------------------------------------------------------------|

 


 | . . . . . . . . . . . |


 

 
 |-----------------------------------------------------------------|
 |-----------------------------------------------------------------|
 |-9h10----9h10----9h10----3-3-3-3-9h10----9h10------3-------------|
 |-----0-0-----0-0-----0-0-3-3-3-3-----0-0-----0-0---3-------------|
 |-------------------------1-1-1-1-----------------1-1-------------|
 |-----------------------------------------------------------------|

 


 . . . . . . . . . . .


 


 CHORUS


 Bjorn X4


 

 
 |-----------------------------------------------------------------|
 |-----------------------------------------------------------------|
 |-7-7-7-7-7-7-7-7-2-2-2-2-2-2-2-2-3-3-3-3-3-3-3-3-5-5-5-5-5-5-5-5-|
 |-7-7-7-7-7-7-7-7-2-2-2-2-2-2-2-2-3-3-3-3-3-3-3-3-5-5-5-5-5-5-5-5-|
 |-5-5-5-5-5-5-5-5-0-0-0-0-0-0-0-0-1-1-1-1-1-1-1-1-3-3-3-3-3-3-3-3-|
 |-----------------------------------------------------------------|

 


 


 Jesper X2


 

 
 |---------------------------------------------------------------------|
 |-----------------/15-13-15-13----------------------------------------|
 |-----14-14-12-10--------------15-14-10-/14-12-10-12-10-12-14-12-10-9-|
 |-/12-----------------------------------------------------------------|
 |---------------------------------------------------------------------|
 |---------------------------------------------------------------------|
 |----------------------------|
 |----------------------------|
 |-----------------3----2-----|
 |-----------------3----2--3--|
 |-----------------1----0--3--|
 |-0-0-0-0-0-0-0-0---------3--|

 


 | . . . . . . . . |


 

 
 |----------------------------|
 |----------------------------|
 |-----------------3----2-----|
 |-/12-------------3----2--3--|
 |-----------------1----0--3--|
 |-------------------------3--|

 


 


 INTERLUDE X2


 

 
 |-----------------------------------------------------------|
 |-----------------------------------------------------------|
 |-----------------------------------------------------------|
 |---------3--3----------5--5----------3--3------------------|
 |---------X--X----------X--X----------X--X------------------|
 |-0-0-0-0-0--0--0-0-0-0-0--0--0-0-0-0-0--0--0-0-0-0-0-0-0-0-|

 


 | . . . . . . . . . . . . . . . . . . . . |


 

 
 |-----------------------------------------------------------|
 |-----------------------------------------------------------|
 |-----------------------------------------------------------|
 |---------7--7----------8--8----------7--7------------------|
 |---------X--X----------X--X----------X--X------------------|
 |-0-0-0-0-0--0--0-0-0-0-0--0--0-0-0-0-0--0--0-0-0-0-0-0-0-0-|

 


 . . . . . . . . . . . . . . . . . . . .


 


 [VERSE] 


 


 [PRE-CBORUS] 


 


 [CBORUS] 


 


 BRIDGE


 

 
 |-----------------------------------------------------------------|
 |---------------------------------------------------------6-5-----|
 |-7-7---5---7-----7-7---5---7-----7-7---5---7---7---7-5-------7-5-|
 |-----0---0---0-0-----0---0---0-0-----0---0---0---0-----0---------|
 |-----------------------------------------------------------------|
 |-----------------------------------------------------------------|

 


 . . . . . . . . . . . . .


 


 X2


 

 
 |-----------------------------------------------------------------|
 |---------------------------------------------------------6-5-----|
 |-7-7---5---7-----7-7---5---7-----7-7---5---7---7---7-5-------7-5-|
 |-----0---0---0-0-----0---0---0-0-----0---0---0---0-----0---------|
 |-----------------------------------------------------------------|
 |-----------------------------------------------------------------|

 


 | . . . . . . . . . . . . . |


 

 
 |-----------------------------------------------------------------|
 |--------------------------------------------------------10-8-----|
 |-1010--9---10----1010--9---10----1010--9---10--10--10-9-----10-9-|
 |-----0---0---0-0-----0---0---0-0-----0---0---0---0-----0---------|
 |-----------------------------------------------------------------|
 |-----------------------------------------------------------------|

 


 . . . . . . . . . . . . .


 


 

 
 |---------------------------------|
 |---------------------------------|
 |-5-7-----5-7-----5-7-----5-7-----|
 |-----8-7-----8-7-----8-7-----8-7-|
 |---------------------------------|
 |---------------------------------|

 


 | ............................... |


 

 
 |---------------------------------|
 |---------------------------------|
 |-9-10----9-10----9-10----9-10----|
 |-----1210----1210----1210----1210|
 |---------------------------------|
 |---------------------------------|

 


 ...............................


 


 Bjorn


 

 
 |-----------------------------------------------|
 |-----------------------------------------------|
 |---101010-1010-10101010---101010-1010-10101010-|
 |---101010-1010-10101010---101010-1010-10101010-|
 |---8-8-8--8-8--8-8-8-8----8-8-8--8-8--8-8-8-8--|
 |-----------------------------------------------|
 |-----------------------------------------------|
 |-----------------------------------------------|
 |---101010-1010-10101010---101010-1010----------|
 |---101010-1010-10101010---101010-1010-10//////-|
 |---8-8-8--8-8--8-8-8-8----8-8-8--8-8--8-//////-|
 |-----------------------------------------------|
 |-----------------------------------------------------------------|
 |-----------------------------------------------------------------|
 |-----------------------------------------------------------------|
 |-----------------------------------------------------------------|
 |-----------------------------------------------------------------|
 |-3-3-3-3-3-3-3-3-3-3-3-3-3-3-3-3-3-3-3-3-3-3-3-3-3-3-3-3-3-3-3-3-|

 


 ...............................................................


 


 

 
 |-----------------------------------------|
 |-----------------------------------------|
 |-----------3----5--------------3----5----|
 |-5----3----3----5----5----3----3----5----|
 |-5----3----1----3----5----3----1----3----|
 |-5----3--------------5----3--------------|

 


 


 Jesper


 

 
 |-------------------------------------------------|
 |----------------------------------------------13-|
 |-10----12-13-12----13-15-10----13----10-13-12----|
 |----10----------10----------10----10-------------|
 |-------------------------------------------------|
 |-------------------------------------------------|

 


 . . . .


 


 

 
 |-------------------------------------------------|
 |-------------------------------------------------|
 |-10----12-13-12----13-15-10----13----13-12-10----|
 |----10----------10----------10----10----------13-|
 |-------------------------------------------------|
 |-------------------------------------------------|

 


 . . . . .


 


 

 
 |-------------------------------------------------|
 |-------------------------------------------------|
 |----------------------------------------------14-|
 |-13----13-16-15----13-16-13----16----13-15-16----|
 |----13----------13----------13----13-------------|
 |-------------------------------------------------|

 


 . . . .


 


 

 
 |-------------------------------------------------|
 |-------------------------------------------------|
 |-------------------------------------14----------|
 |-13----13-16-15----13-16-13----16-------16-15----|
 |----13----------13----------13----13----------16-|
 |-------------------------------------------------|

 


 . . . . .


 


 [INTERLUDE] 


 


 [CBORUS] 


 


 EXIT


 

 
 |-----------------------------------------------------------------|
 |-----------------------------------------------------------------|
 |-----------------------------------------------------------------|
 |-----3-7-6-----2-5-----0-3-----3-----3-7-6-----2-5---------------|
 |-----------------------------1-------------------------------*5--|
 |-0-0-------0-0-----0-0-----0-----0-0-------0-0-----0-0-0-0-0-----|

 


 | . . . . . . . . . . . . . . . . . |


 

 
 |-----------------------------------------------------------------|
 |-----------------------------------------------------------------|
 |-----------------------------------------------------------------|
 |-----3-7-6-----2-5-----0-3-----3-----3-7-6-----2-5---------------|
 |-----------------------------1-----------------------------------|
 |-0-0-------0-0-----0-0-----0-----0-0-------0-0-----0-0-0-0-0-0-0-|

 


 . . . . . . . . . . . . . . . . . . .


 


 

 
 |------------------------------------------------------------------|
 |------------------------------------------------------------------|
 |-------------------------------------------------3333222277775555-|
 |-----3-7-6-----2-5-----0-3-----3-----3-7-6------------------------|
 |-----------------------------1------------------------------------|
 |-0-0-------0-0-----0-0-----0-----0-0-------0-0-0------------------|

 


 | . . . . . . . . . . . . . |


 

 
 |------------------------------------------------------------------|
 |------------------------------------------------------------------|
 |------------------------------------------------------------------|
 |-----3-7-6-----2-5-----0-3-----3-----3-7-6-------5555333388887777-|
 |-----------------------------1------------------------------------|
 |-0-0-------0-0-----0-0-----0-----0-0-------0-0-0------------------|

 


 . . . . . . . . . . . . .


 


 

 
 |--------------------------------|
 |--------------------------------|
 |--------------------------------|
 |-0------------------------------|
 |-0------------------------------|
 |-0------------------------------|


Important: The song above is NOT stored on the Chordie server. The original song is hosted at www.azchords.com. Chordie works as a search engine and provides on-the-fly formatting. Chordie does not index songs against artists'/composers' will. To remove this song please click here.

This song is displayed as text-only. Transposing and tuning is only available for chordpro-songs.
Rate #1 of 1 versions

Jango Player

Login - add to songbook

SHARE PAGE  



You need to log in to post comments