Guitar Tabs, Chords and Lyrics
Server problems seems to be fixed. Chordie has been experiencing problems with songs disappearing. These issues now seems to be fixed, but still verifying the fix. If you find anything strange, please email admin@chordie.com.


A Toast To Broken Glass  InMe

A Toast to Broken Glass
This track has two guitars most of the way through, but I've put all the best bits here.
:)
Intro 1
[E] [E] [E] [E] [E] [E] [E] [E] [E] [E] [E] [E] [E] [E] [E] [E]  
 
 E||----------------------------------|---------------------------------|
 B||----------------------------------|---------------------------------|
 G||--10---x---x--10---x---x--10---x--|---x--10---x---x---x--12---x--x--|
 D||-------x---x-------x---x-------x--|---x-------x---x---x-------x--x--|
 A||---8---x---x---8---x---x---8---x--|---x---8---x---x---x--10---x--x--|
 D||----------------------------------|---------------------------------|

[E] [E] [E] [E] [E] [E] [E] [E] [E] [E] [E] [E] [E] [E] [E] [E]  
 
 --------------------------------|---------------------------------|
 --------------------------------|---------------------------------|
 --9---x---x--9---x---x--10---x--|---x--10---x---x---x--10---x--x--|
 ------x---x------x---x-------x--|---x-------x---x---x-------x--x--|
 --7---x---x--7---x---x---8---x--|---x---8---x---x---x---8---x--x--|
 --------------------------------|---------------------------------|

[E] [E] [E] [E] [E] [E] [E] [E] [E] [E] [E] [E] [E] [E] [E] [E]  
 
 ----------------------------------|---------------------------------|
 ----------------------------------|---------------------------------|
 --10---x---x--10---x---x--10---x--|---x--10---x---x---x--14---x--x--|
 -------x---x-------x---x-------x--|---x-------x---x---x-------x--x--|
 ---8---x---x---8---x---x---8---x--|---x---8---x---x---x--12---x--x--|
 ----------------------------------|---------------------------------|

NH NH NH
E E E E E E E E E E E E E E Q
 
 -------------------------------|---------------------------------|
 -------------------------------|---------------------------------|
 --9---x---x--9---x---x--5---x--|---x--5---x----------------------|
 ------x---x------x---x------x--|---x------x---------------<>5----|
 --7---x---x--7---x---x--3---x--|---x--3---x--x-------<>5---------|
 -------------------------------|----------------<>5--------------|

[E] [E] [E] [E] [E] [E] [E] [E] [E] [E] [E] [E] [E] [E] [E] [E]  
 
 ----------------------------------|---------------------------------|
 ----------------------------------|---------------------------------|
 --10---x---x--10---x---x--10---x--|---x--10---x---x---x--12---x--x--|
 ---x---x---x-------x---x-------x--|---x-------x---x---x-------x--x--|
 ---8---x---x---8---x---x---8---x--|---x---8---x---x---x--10---x--x--|
 ---x------------------------------|---------------------------------|

[E] [E] [E] [E] [E] [E] [E] [E] [E] [E] [E] [E] [E] [E] [E] [E]  
 
 --------------------------------|--------------------------------|
 --------------------------------|--------------------------------|
 --9---x---x--9---x---x--10---x--|---x--10---x---x---x--9---x--x--|
 ------x---x------x---x-------x--|---x-------x---x---x------x--x--|
 --7---x---x--7---x---x---8---x--|---x---8---x---x---x--7---x--x--|
 --------------------------------|--------------------------------|

[E] [E] [E] [E] [E] [E] [E] [E] [E] [E] [E] [E] [E] [E] [E] [E]  
 
 -------------------------------|-------------------------------|
 -------------------------------|-------------------------------|
 --7---x---x--7---x---x--7---x--|---x--7---x---x---x--9---x--x--|
 ------x---x------x---x------x--|---x------x---x---x------x--x--|
 --5---x---x--5---x---x--5---x--|---x--5---x---x---x--7---x--x--|
 -------------------------------|-------------------------------|

[E] [E] [E] [E] [E] [E] [E] [E] [E] [E] [E] [E] [E] [E] [E] [E]  
 
 -------------------------------|--------------------------|
 -------------------------------|--------------------------|
 --6---x---x--6---x---x--6s--7--|--L--7--x--x--x--9--x--x--|
 ------x---x------x---x---------|--------x--x--x-----x--x--|
 --4---x---x--4---x---x--4s--5--|--L--5--x--x--x--7--x--x--|
 -------------------------------|--------------------------|

[E] [E] [E] [E] [E] [E] [E] [E] [E] [E] [E] [E] [E] [E] [E] [E]  
 
 -------------------------------|-------------------------------|
 -------------------------------|-------------------------------|
 --6---x---x--6---x---x--6---x--|---x--6---x---x---x--7---x--x--|
 ------x---x------x---x------x--|---x------x---x---x------x--x--|
 --4---x---x--4---x---x--4---x--|---x--4---x---x---x--5---x--x--|
 -------------------------------|-------------------------------|

[E] [E] [E] [E] [E] [E] [E] [E] [E] [E] [E] [E] [E] [E] [E] [E]  
 
 -------------------------------|--------------------------|
 -------------------------------|--------------------------|
 --4---x---x--4---x---x--4s--6--|--L--6--x--x--x--6--x--x--|
 ------x---x------x---x---------|--------x--x--x-----x--x--|
 --2---x---x--2---x---x--2s--4--|--L--4--x--x--x--4--x--x--|
 -------------------------------|--------------------------|

[E] [E] [E] [E] [E] [E] [E] [E] [E] [E] [E] [E] [E] [E] [E] [E]  
 
 -------------------------------|-------------------------------|
 -------------------------------|-------------------------------|
 --4---x---x--4---x---x--4---x--|---x--4---x---x---x--6---x--x--|
 ------x---x------x---x------x--|---x------x---x---x------x--x--|
 --2---x---x--2---x---x--2---x--|---x--2---x---x---x--4---x--x--|
 -------------------------------|-------------------------------|

[E] [E] [E] [E] [E] [E] [E] [E] [E] [E] [E] [E] [E] [E] [E] [E]  
 
 -------------------------------|------------------------------|
 -------------------------------|------------------------------|
 --2---x---x--2---x---x--2---x--|---x--2---x---x---x--2--2--2--|
 ------x---x------x---x------x--|---x------x---x---x-----------|
 --0---x---x--0---x---x--0---x--|---x--0---x---x---x--0--0--0--|
 -------------------------------|------------------------------|

Build up
PM PM PM PM PM PM PM PM PM PM PM PM PM PM PM PM
[E] [E] [E] [E] [E] [E] [E] [E] [E] [E] [E] [E] [E] [E] [E] [E]  
 
 --------------------------|--------------------------|
 --------------------------|--------------3--3--3--3--|
 --------------------------|--5--5--5--5--------------|
 --------------5--5--5--5--|--------------------------|
 --3--3--3--3--------------|--------------------------|
 --------------------------|--------------------------|

Intro 2-lots of phaser
so tricky to hear
PM PM PM PM PM PM PM PM PM PM PM PM PM PM
E E E E E E E E E E E E E E Q E E E E E E E E
 
 --------------2--2--2--2--|--------------------6----|--------------------------|
 --5--5--5--5--------------|--5--5--5--5--3--3--0----|--------------------------|
 --------------------------|-------------------------|--------------------------|
 --------------------------|-------------------------|-----8--7-----------------|
 --------------------------|-------------------------|--5--------5--8--7--4--5--|
 --------------------------|-------------------------|--------------------------|

[E] [E] [E] [E] [E] [E] [E] [E] [E] [E] [E] [E] [E] [E] [E] [E]  
 
 --------------------------|------------------------------|
 --------------------------|------------------------------|
 --------------------------|------------------------------|
 --------8--5--7--5--------|--------12--8-------------10--|
 --5--5--------------8--7--|--8--8---------12--10--8------|
 --------------------------|------------------------------|

[E] [E] [E] [E] [E] [E] [E] [E] [E] [E] [E] [E] [E] [E] [E] [E]  
 
 ------------------------------|--------------------------|
 ------------------------------|--------------------------|
 ----------10--9--7------------|--------------------------|
 --10--10------------10--8--7--|-----8--7-----------------|
 ------------------------------|--5--------5--8--7--4--5--|
 ------------------------------|--------------------------|

[E] [E] [E] [E] [E] [E] [E] [E] [E] [E] [E] [E] [E] [E] [E] [E]  
 
 --------------------------|------------------------------|
 --------------------------|------------------------------|
 --------------------------|------------------------------|
 --------8--5--7--5--------|--------12--8-------------10--|
 --5--5--------------8--7--|--8--8---------12--10--8------|
 --------------------------|------------------------------|

[E] [E] [E] [E] [E] [E] [E] [E] [E] [E] [E] [E] [E] [E] [E] [E]  
 
 ------------------------------|-----------------------------|
 ------------------------------|-----------------------------|
 ----------10--9--7------------|-----------------------------|
 --10--10------------10--8--7--|-----10--8-------------------|
 ------------------------------|------------8--10--8S--4--5--|
 ------------------------------|-----------------------------|

[E] [E] [E] [E] [E] [E] [E] [E] [E] [E] [E] [E] [E] [E] [E] [E]  
 
 --------------------------|------------------------------|
 --------------------------|------------------------------|
 --------------------------|------------------------------|
 --------8--5--7--5--------|--------12--8-------------10--|
 --5--5--------------8--7--|--8--8---------12--10--8------|
 --------------------------|------------------------------|

[E] [E] [E] [E] [E] [E] [E] [E] [E] [E] [E] [E] [E] [E] [E] [E]  
 
 ------------------------------|--------------------------|
 ------------------------------|--------------------------|
 ----------10--9--7------------|--------------------------|
 --10--10------------10--8--7--|-----8--7-----------------|
 ------------------------------|--5--------5--8--7--4--5--|
 ------------------------------|--------------------------|

[E] [E] [E] [E] [E] [E] [E] [E] [E] [E] [E] [E] [E] [E] [E] [E]  
 
 --------------------------|------------------------------|
 --------------------------|------------------------------|
 --------------------------|------------------------------|
 --------8--5--7--5--------|--------12--8-------------10--|
 --5--5--------------8--7--|--8--8---------12--10--8------|
 --------------------------|------------------------------|

[E] [E] [E] [E] [E] [E] [E] [E]  
 
 ---------------------------------|
 -----------------8s--10----------|
 ----------9--10----------12--10--|
 --10--10-------------------------|
 ---------------------------------|
 ---------------------------------|

Verse - Same as Intro 1
Verse end
[E] [E] [E] [E] [E] [E] [E] [E]  
 
 |----------------------------------|
 |----------------------------------|
 |--14--14--14--14--14--14--12--12--|
 |----------------------------------|
 |--12--12--12--12--12--12--10--10--|
 |----------------------------------|

E E E E E E E E Q Q E Q E
 
 --------------------------------|-----------------------|
 --------------------------------|-----------------------|
 --12--12---x---x--11--11--x--9--|--L----9----9--9----9--|
 -----------x---x----------x-----|-----------------------|
 --10--10---x---x---9---9--x--7--|--L----7----7--7----7--|
 --------------------------------|-----------------------|

Chorus
PM PM PM
Q Q E E E E Q E E E E E E E E E E E E E E
 
 ------------------------|--------------------------|---------------------------|
 ------------------------|--------------------------|---------------------------|
 --9----9----------------|-------6-----4------------|---------------------------|
 ------------0--0--0--0--|--L-------7-----7---------|---------0--------------2--|
 --7----7-------------0--|--L----------------7p--5--|--7s--9-----4--0--2--0--2--|
 ---------------------0--|--L-----------------------|------------------------2--|

PM PM PM
Q E E E E E E E E E E E E E E
 
 --------------------------|---------------------------|
 --------------------------|---------------------------|
 -------6-----4------------|---------------------------|
 --L-------7-----7---------|------------0-----------4--|
 --L----------------7p--5--|--7s--9--7-----4--2--0--4--|
 --L-----------------------|------------------------4--|

Q E E E E E E E E E E E E E E
 
 --------------------------|---------------------------|
 --------------------------|---------------------------|
 -------6-----4------------|---------------------------|
 --L-------7-----7---------|---------0--------------5--|
 --L----------------7p--5--|--7s--9-----4--0--2--0--5--|
 --L-----------------------|------------------------5--|

PH
Q E E E E E E E E E E Q E E
 
 -------------------------|-----------------------------|
 -------------------------|-----------------------------|
 -------6-----4-----6-----|--6--7--6--7--<>7br----6-----|
 --L-------7-----7-----7--|--------------------------0--|
 --L----------------------|--------------------------0--|
 --L----------------------|--------------------------0--|

Q E E E E E E E E E E E E E E
 
 --------------------------|---------------------------|
 --------------------------|---------------------------|
 -------6-----4------------|---------------------------|
 --L-------7-----7---------|---------0--------------2--|
 --L----------------7p--5--|--7s--9-----4--0--2--0--2--|
 --L-----------------------|------------------------2--|

PM PM PM
Q E E E E E E E E E E E E E E
 
 --------------------------|---------------------------|
 --------------------------|---------------------------|
 -------6-----4------------|---------------------------|
 --L-------7-----7---------|------------0-----------4--|
 --L----------------7p--5--|--7s--9--7-----4--2--0--4--|
 --L-----------------------|------------------------4--|

Q E E E E E E E E E E E E E E
 
 --------------------------|---------------------------|
 --------------------------|---------------------------|
 -------6-----4------------|---------------------------|
 --L-------7-----7---------|---------0--------------5--|
 --L----------------7p--5--|--7s--9-----4--0--2--0--5--|
 --L-----------------------|------------------------5--|

Q E E E E E E E E E E E E E E W
 
 -------------------------|---------------------------|-------------------|
 -------------------------|---------------------------|-------------------|
 -------6-----4-----6-----|--7-----6-----7-----7s--9--|--L----------------|
 --L-------7-----7-----7--|-----7-----7-----7---------|-------------------|
 --L----------------------|---------------------------|-------------------|
 --L----------------------|---------------------------|-------------------|

[B] [B]  
 
 -----------------------|
 -----------------------|
 --L--------<>9b--------|
 -----------------------|
 -----------------------|
 -----------------------|

Verse 2 - same as before, with distortion.
Verse end
[E] [E] [E] [E] [E] [E] [E] [E]  
 
 ----------------------------------|
 ----------------------------------|
 --17--17--17--17--17--17--16--16--|
 ----------------------------------|
 --15--15--15--15--15--15--14--14--|
 ----------------------------------|

E E E E E E E E Q Q E Q E
 
 ---------------------------------|---------------------------|
 ---------------------------------|---------------------------|
 --16--16--16--16--14--14--x--12--|--L----12----12--12----12--|
 --------------------------x------|---------------------------|
 --14--14--14--14--12--12--x--10--|--L----10----10--10----10--|
 ---------------------------------|---------------------------|

Chorus - as before
Q Q E E E E
 
 --------------------------|
 --------------------------|
 --12----12----------------|
 -----------------------0--|
 --10----10-------------0--|
 -----------------------0--|

Chorus end into... Break
[E] [E] [E] [E] [E] [E] [E] [E] [E] [E] [E] [E] [E] [E] [E] [E]  
 
 ---------------------------|---------------------------|
 ---------------------------|---------------------------|
 --7-----6-----7-----7s--9--|--L-----------------7s--9--|
 -----7-----7-----7---------|-----0-----0--0------------|
 ---------------------------|-----0-----0--0------------|
 ---------------------------|-----0-----0--0------------|

[E] [E] [E] [E] [E] [E] [E] [E] [E] [E] [E] [E] [E] [E] [E] [E]  
 
 ---------------------------|---------------------------|
 ---------------------------|---------------------------|
 --L-----------------4s--6--|--L-----------------4s--6--|
 -----0-----0--0------------|-----2-----2--2------------|
 -----0-----0--0------------|-----2-----2--2------------|
 -----0-----0--0------------|-----2-----2--2------------|

E E E E E E Q E E E E E E Q
 
 --------------------------|--------------------------|
 --------------------------|--------------------------|
 --L-----------------6b----|--L-----------------6b----|
 -----2-----2--2-----------|-----4-----4--4-----------|
 -----2-----2--2-----------|-----4-----4--4-----------|
 -----2-----2--2-----------|-----4-----4--4-----------|

[E] [E] [E] [E] [E] [E] [E] [E] [E] [E] [E] [E] [E] [E] [E] [E]  
 
 ---------------------------|---------------------------|
 --------------------5s--0--|--L-----------------5s--0--|
 --L------------------------|---------------------------|
 -----4-----4--4------------|-----7-----7--7------------|
 -----4-----4--4------------|-----7-----7--7------------|
 -----4-----4--4------------|-----7-----7--7------------|

Chorus variation - second guitar plays chorus riff under this
PM PM PM PM PM PM PM PM PM PM PM
E E E E E E E E Q Q Q Q Q Q Q E E
 
 --------------------------|----------------------|-----------------------|
 --L-----------------------|----------------------|-----------------------|
 --------------------------|----------------------|-----------------------|
 -----6-----------------0--|--L-------------------|--------------------2--|
 -----7-----7--7--7--7--0--|--L----0----0----0----|--0----0----0----0--2--|
 -----6-----6--6--6--6--0--|--L----0----0----0----|--0----0----0----0--2--|

PM PM PM PM PM PM PM PM PM PM PM
Q Q Q Q Q Q E E E E Q Q Q Q
 
 ----------------------|------------------------|----------------------|
 ----------------------|------------------------|----------------------|
 ----------------------|------------------------|----------------------|
 --L-------------------|---------------------4--|--L-------------------|
 --L----2----2----2----|--2----2----2--2--2--4--|--L----4----4----4----|
 --L----2----2----2----|--2----2----2--2--2--4--|--L----4----4----4----|

PM PM PM PM PM
Q Q E E E E E E E Q E E E E E E Q E E E
 
 ------------------------|-------------------------|-------------------------|
 ------------------------|-------------------------|-------------------------|
 ------------------------|-------------------------|-------------------------|
 ---------------------7--|--L--7--x--6----6--x--7--|--L--7--x--6----6--6--6--|
 --4----4----4--4--4--7--|--L--7--x--7----7--x--7--|--L--7--x--7----7--7--7--|
 --4----4----4--4--4--7--|--L--7--x--6----6--x--7--|--L--7--x--6----6--6--6--|

Clean Interlude
Q. Q E Q E Q. H Q. Q E Q
 
 -------------------------|-----------------------|----------------------|
 -------------------------|-----------------------|----------------------|
 --13------13-------11----|--L--11------11--------|--9------9-------7----|
 -------------------------|-----------------------|----------------------|
 --11------11--------9----|--L---9-------9--------|--7------7-------5----|
 -------------------------|-----------------------|----------------------|

E Q. H Q. Q E Q E Q. Q. E
 
 ---------------------|-------------------------|-------------------------|
 ---------------------|-------------------------|-------------------------|
 --L--7------7--------|--13------14-------11----|--L--11------11------13--|
 ---------------------|-------------------------|-------------------------|
 --L--5------5--------|--11------12--------9----|--L---9-------9------11--|
 ---------------------|-------------------------|-------------------------|

Q. Q E Q E Q E H Q. Q E Q
 
 -----------------------|----------------------|-------------------------|
 -----------------------|----------------------|-------------------------|
 --9------11-------7----|--L--7----7--7--------|--13------13-------11----|
 -----------------------|----------------------|-------------------------|
 --7-------9-------5----|--L--5----5--5--------|--11------11--------9----|
 -----------------------|----------------------|-------------------------|

E Q. H Q. Q E Q E Q. H
 
 -----------------------|----------------------|---------------------|
 -----------------------|----------------------|---------------------|
 --L--11------11--------|--9------9-------7----|--L--7------7--------|
 -----------------------|----------------------|---------------------|
 --L---9-------9--------|--7------7-------5----|--L--5------5--------|
 -----------------------|----------------------|---------------------|

Q. Q E Q E Q. Q. E Q. Q E Q
 
 -------------------------|-------------------------|-----------------------|
 -------------------------|-------------------------|-----------------------|
 --13------14-------11----|--L--11------11------13--|--9------11-------7----|
 -------------------------|-------------------------|-----------------------|
 --11------12--------9----|--L---9-------9------11--|--7-------9-------5----|
 -------------------------|-------------------------|-----------------------|

Distorted Interlude
PM PM PM PM PM
E E E E E Q. Q. E E E Q E E E E E E E E
 
 ------------------------|-----------------------|--------------------------|
 ------------------------|-----------------------|--------------------------|
 ------------------------|--6------6--x--x--4----|--L--4--x--x--4--4--x--x--|
 --0--0--0--0--0---------|------------x--x-------|--------x--x--------x--x--|
 ------------------------|--4------4--x--x--2----|--L--2--x--x--2--2--x--x--|
 ------------------------|-----------------------|--------------------------|

Q. E E E Q E E E E E E E E Q. E E E Q
 
 -----------------------|--------------------------|-----------------------|
 -----------------------|--------------------------|-----------------------|
 --2------2--x--x--7----|--L--7--x--x--9--9--x--x--|--6------6--7--x--4----|
 ------------x--x-------|--------x--x--------x--x--|---------------x-------|
 --0------0--x--x--5----|--L--5--x--x--7--7--x--x--|--4------4--5--x--2----|
 -----------------------|--------------------------|-----------------------|

E E E E E E E E Q. E E E S S S S
 
 --------------------------|--------------------------|
 --------------------------|--------------------------|
 --L--4--x--x--4--4--x--6--|--2------2--x--x----------|
 --------x--x--------x-----|------------x--x--x-x-x-x-|
 --L--2--x--x--2--2--x--4--|--0------0--x--x--x-x-x-x-|
 --------------------------|--------------------------|

? some kind of slidey thingy ?
S S S S S S S S S S S S S S S S Q. E E E Q
 
 --------------------------------------------|---------------------------|
 --------------------------------------------|---------------------------|
 --------------------------------------------|---------------------------|
 --x-x-x-x-x-x--x--x--x--x--x--x--x--x--x--x-|---------------------------|
 --x-x-x-x-x-x--x--x--x--x--x--x--x--x--x--x-|--/11------11--x--x--/9----|
 --------------------------------------------|---------------------------|

E E E E E E E E Q. E E E Q E E E E E E E E
 
 --------------------------|-------------------------|--------------------------|
 --------------------------|-------------------------|--------------------------|
 --------------------------|-------------------------|--------------------------|
 --------------------------|-------------------------|--------------------------|
 --L--9--x--x--9--9--x--x--|--/7------7--x--x--/5----|--L--5--x--x--5--5--x--x--|
 --------------------------|-------------------------|--------------------------|

Q. E E E Q E E E E E E E E
 
 ----------------------------|----------------------------|
 ----------------------------|----------------------------|
 ----------------------------|----------------------------|
 ----------------------------|----------------------------|
 --/11------11--12--x--/9----|--L--9--x--x--9--9--9s--11--|
 ----------------------------|----------------------------|

Q. E E E S S S S S S S S S S S S S S S S S S S S
 
 --------------------------|--------------------------------------------|
 --------------------------|--------------------------------------------|
 ------------x--x----------|--------------------------------------------|
 ------------x--x--x-x-x-x-|--x-x-x-x-x-x--x--x--x--x--x--x--x--x--x--x-|
 --7------7--x--x--x-x-x-x-|--x-x-x-x-x-x--x--x--x--x--x--x--x--x--x--x-|
 --------------------------|--------------------------------------------|

Q. E E E Q E E E E E E E E Q. E E E Q
 
 -----------------------|--------------------------|-----------------------|
 -----------------------|--------------------------|-----------------------|
 --6------6--x--x--6----|--L--6--x--x--7--7--x--x--|--4------4--x--x--6----|
 ------------x--x-------|--------x--x--------x--x--|------------x--x-------|
 --4------4--x--x--4----|--L--4--x--x--5--5--x--x--|--2------2--x--x--4----|
 -----------------------|--------------------------|-----------------------|

E E E E E E E E Q. E E E Q E E E E E E E E
 
 --------------------------|-----------------------|--------------------------|
 --------------------------|-----------------------|--------------------------|
 --L--6--x--x--6--6--x--x--|--4------4--x--x--4----|--L--4--x--x--6--6--x--x--|
 --------x--x--------x--x--|------------x--x-------|--------x--x--------x--x--|
 --L--4--x--x--4--4--x--x--|--2------2--x--x--2----|--L--2--x--x--4--4--x--x--|
 --------------------------|-----------------------|--------------------------|

Q. E E E Q E E E E E E E E
 
 -----------------------|--------------------------|
 -----------------------|--------------------------|
 --2------2--x--x--2----|--L--2--x--x--2--2--x--x--|
 ------------x--x-------|--------x--x--------x--x--|
 --0------0--x--x--0----|--L--0--x--x--0--0--x--x--|
 -----------------------|--------------------------|

[E] [E] [E] [E] [E] [E] [E] [E] [E] [E] [E] [E] [E] [E] [E] [E]  
 
 ----------------------------------|---------------------------------|
 ----------------------------------|---------------------------------|
 --17--17--17--17--17--17--16--16--|--16--16--16--16--14--14--x--12--|
 ----------------------------------|--------------------------x------|
 --15--15--15--15--15--15--14--14--|--14--14--14--14--12--12--x--10--|
 ----------------------------------|---------------------------------|

PM PM PM
Q Q E Q E Q Q E E E E
 
 ---------------------------|--------------------------|
 ---------------------------|--------------------------|
 --L----12----12--12----12--|--12----12----------------|
 ---------------------------|--------------0--0--0--0--|
 --L----10----10--10----10--|--10----10-------------0--|
 ---------------------------|-----------------------0--|

Chorus - as before
Break - slight variation
PM PM
[E] [E] [E] [E] [E] [E] [E] [E] [E] [E] [E] [E] [E] [E] [E] [E]  
 
 ---------------------------|---------------------------|
 ---------------------------|---------------------------|
 --L-----------------7s--9--|--L-----------------4s--6--|
 -----0--------0------------|-----0--------0------------|
 -----0-----0--0------------|-----0-----0--0------------|
 -----0-----0--0------------|-----0-----0--0------------|

PM PM PM
E E E E E E E E E E E S S E E Q
 
 ---------------------------|-----------------------------|
 ---------------------------|-----------------------------|
 --L-----------------4s--6--|--L--------------------6b----|
 -----2--------2------------|-----2-----------2-----------|
 -----2-----2--2------------|-----2-----2--2--2-----------|
 -----2-----2--2------------|-----2-----2--2--2-----------|

PM PM
E E E E E E Q E E E E E E E E
 
 --------------------------|---------------------------|
 --------------------------|--------------------5s--0--|
 --L-----------------6b----|--L------------------------|
 -----4--------4-----------|-----4--------4------------|
 -----4-----4--4-----------|-----4-----4--4------------|
 -----4-----4--4-----------|-----4-----4--4------------|

Chorus variation
PM PM PM PM PM
E E E E E E E E E E E E E E E E Q Q Q Q
 
 ---------------------------|--------------------------|----------------------|
 --L-----------------5s--0--|--L-----------------------|----------------------|
 ---------------------------|--------------------------|----------------------|
 -----7--------7------------|-----6--------6--6--6--0--|--L-------------------|
 -----7-----7--7------------|-----7-----7--7--7--7--0--|--L----0----0----0----|
 -----7-----7--7------------|-----6-----6--6--6--6--0--|--L----0----0----0----|

PM PM PM PM PM PM PM PM PM PM PM PM
Q Q Q E E Q Q Q Q Q Q E E E E
 
 -----------------------|----------------------|------------------------|
 -----------------------|----------------------|------------------------|
 -----------------------|----------------------|------------------------|
 --------------------2--|--L-------------------|---------------------4--|
 --0----0----0----0--2--|--L----2----2----2----|--2----2----2--2--2--4--|
 --0----0----0----0--2--|--L----2----2----2----|--2----2----2--2--2--4--|

PM PM PM PM PM PM PM PM
Q Q Q Q Q Q E E E E E E E Q E E E
 
 ----------------------|------------------------|-------------------------|
 ----------------------|------------------------|-------------------------|
 ----------------------|------------------------|-------------------------|
 --L-------------------|---------------------7--|--L--7--x--6----6--x--7--|
 --L----4----4----4----|--4----4----4--4--4--7--|--L--7--x--7----7--x--7--|
 --L----4----4----4----|--4----4----4--4--4--7--|--L--7--x--6----6--x--7--|

Solo
E E E Q E E E E E E E E E E E
 
 ---------------------------|----------------------------------|
 ---------------------------|----------------------------------|
 ----------------------11\--|---L------------------------------|
 --L--7--x--6----6--6-------|------0h--14p--0--12p--0--11p--0--|
 --L--7--x--7----7--7-------|----------------------------------|
 --L--7--x--6----6--6-------|----------------------------------|

PM PM PM PM PM
 
 |----3---|

[E] [E] [E] [E] [E] [E] [E] [E] [E] [E] [E] [E] [E] [E] [E] [E] [E]  
 
 -----------------------------------|--------------------------|
 -----------------------------------|--------------------------|
 -----------------------------------|--------------------------|
 --9h--11p--9--9--------------------|--------------------------|
 -----------------12--9----------0--|--L--0--0--0--0--0--0--5--|
 ------------------------14--12--0--|--L--0--0--0--0--0--0--5--|

E E E Q E E E E E E E E E E E
 
 -------------------------|---------------------------------|
 -------------------------|---------------------------------|
 -------------------------|---------------------------------|
 -------------------------|-----0h--14p--0--12p--0--11p--0--|
 --L--5--x--4----4--x--9--|--L------------------------------|
 --L--5--x--7----7--x--9--|--L------------------------------|
 |----3---| |----3---| |----3---|

[E] [E] [E] [E] [E] [E] [E] [E] [E] [E] [E]  
 
 --------------------------------------------------|
 --------------------------------------------------|
 --------------------------------------------------|
 --12p--11p--0--14p--11p--0--16p--11p--0--17s--19--|
 --------------------------------------------------|
 --------------------------------------------------|

Q Q E E E E E E E Q E E E
 
 ------------------------------|----------------------------|
 ------------------------------|----------------------------|
 -------------------------/12--|--L--12--x--11----11--x-----|
 --L----19----19--19---x-------|----------------------------|
 ------------------------------|-------------------------9--|
 ------------------------------|-------------------------9--|
 |----3---|

[E] [E] [E] [E] [E] [E] [E] [E] [E] [E] [E] [E] [E] [E] [E] [E] [E]  
 
 ---------------------------------|------------------------------------|
 ---------------------------------|------------------------------------|
 ---------------------------------|------------------------------------|
 -----0h--14p--0--12p--0--11p--0--|--9h--11p--9--9---------------------|
 --L------------------------------|-----------------12--------------0--|
 --L------------------------------|---------------------16--14--12--0--|

PM PM PM PM PM
E E E E E E E E E E E Q E E E
 
 --------------------------|-------------------------|
 --------------------------|-------------------------|
 --------------------------|-------------------------|
 --------------------------|-------------------------|
 --L--0--0--0--0--0--0--5--|--L--5--x--4----4--x--9--|
 --L--0--0--0--0--0--0--5--|--L--5--x--7----7--x--9--|

[E] [E] [E] [E] [E] [E] [E] [E]  
 
 ---------------------------------|
 ---------------------------------|
 ---------------------------------|
 -----0h--14p--0--12p--0--11p--0--|
 --L------------------------------|
 --L------------------------------|
 |----3---| |----3---| |----3---|

[E] [E] [E] [E] [E] [E] [E] [E] [E] [E] [E]  
 
 --------------------------------------------------|
 --------------------------------------------------|
 --------------------------------------------------|
 --12p--11p--0--14p--11p--0--16p--11p--0--17s--19--|
 --------------------------------------------------|
 --------------------------------------------------|

SH
Q Q E E E E E E E Q E Q
 
 ------------------------------|-------------------------------|
 ------------------------------|----------------------<>11b----|
 -------------------------/12--|--L--12--x--11----11-----------|
 --L----19----19--19---x-------|-------------------------------|
 ------------------------------|-------------------------------|
 ------------------------------|-------------------------------|

Intro 2 repeats
Clean outro
Q. Q E Q Q H Q Q. Q E Q
 
 -------------------------|-----------------------|----------------------|
 -------------------------|-----------------------|----------------------|
 --13------13-------11----|--L-----L--------11----|--9------9-------7----|
 -------------------------|-----------------------|----------------------|
 --11------11--------9----|--L-----L---------9----|--7------7-------5----|
 -------------------------|-----------------------|----------------------|

Q H Q Q. E E E Q Q H E E
 
 ---------------------|----------------------------|--------------------------|
 ---------------------|----------------------------|--------------------------|
 --L----L--------7----|--13------13s--14-----11----|--L-----L--------11s--13--|
 ---------------------|----------------------------|--------------------------|
 --L----L--------5----|--11------11s--12------9----|--L-----L---------9s--11--|
 ---------------------|----------------------------|--------------------------|

Q. Q E Q W W
 
 -----------------------|-------------------|-------------------||
 -----------------------|-------------------|-------------------||
 --9------11-------7----|--L----------------|--L----------------||
 -----------------------|-------------------|-------------------||
 --7-------9-------5----|--L----------------|--L----------------||
 -----------------------|-------------------|-------------------||

Duration Legend
 
 ---------------

W - whole
H - half
Q - quarter
E - 8th
S - 16th
T - 32nd
X - 64th
. - note dotted
|-n-| - n-tuplets
Tablature Legend
 
 ----------------

L - tied note
x - dead note
g - grace note
(n) - ghost note
> - accentuded note
NH - natural harmonic
AH - artificial harmonic
TH - tapped harmonic
SH - semi harmonic
PH - pitch harmonic
h - hammer on
p - pull off
b - bend
br - bendRelease
pb - preBend
pbr - preBendRelease
brb - bendReleaseBend
\n/ - tremolo bar dip
\n - tremolo bar dive
-/n - tremolo bar Release up
/n\ - tremolo bar inverted dip
/n - tremolo bar return
-\n - tremolo bar Release down
S - shift slide
s - legato slide
/ - slide into from below or out of upwards
\ - slide into from above or out of downwards
~ - vibrato
W - wide vibrato
tr - trill
TP - tremolo picking
T - tapping
S - slap
P - pop
< - fade in
^ - brush up
v - brush down

Important: The song above is NOT stored on the Chordie server. The original song is hosted at www.azchords.com. Chordie works as a search engine and provides on-the-fly formatting. Chordie does not index songs against artists'/composers' will. To remove this song please click here.

Text color:
Chord color:
Chord grids: 
Font size:    
Page size: 

B E
Rate #1 of 1 versions

Login - add to songbook

SHARE PAGE  




You need to log in to post comments